Cifra Club

Aprenda

He Is

Ghost

Cifra: Principal (violão e guitarra)
Tom: C (forma dos acordes no tom de D) Afinação: D G C F A D
[Intro] 

(Guitarra 1 & 2)  ~
( Parte 1 )

E|----------------------------|
B|---3h5p3p2--3-----3-----3---|
G|---------------4-----4-----4|
D|----------------------------|
A|----------------------------|
E|----------------------------|

E|----------------------------|
B|---3hp3p2--3-----3-----3---|
G|---------------2-----2-----2|
D|----------------------------|
A|----------------------------|
E|----------------------------|

E|---2h3p2p0--2-----2-----2---|
B|---------------2-----2-----2|
G|----------------------------|
D|----------------------------|
A|----------------------------|
E|----------------------------|

E|---2h3p2p0--2-----2-----2---|
B|---------------0-----0-----0|
G|----------------------------|
D|----------------------------|
A|----------------------------|
E|----------------------------|

(Guitarra 1 e 2)
( Parte 2 )

E|----------------------------|
B|---3h5p3p2--3-----3-----3---|
G|---------------4-----4-----4|
D|----------------------------|
A|----------------------------|
E|----------------------------|

E|----------------------------|
B|---3h5p3p2--3-----3-----3---|
G|---------------2-----2-----2|
D|----------------------------|
A|----------------------------|
E|----------------------------|

E|---2h3p2p0--2-----2-----2---|
B|---------------2-----2-----2|
G|----------------------------|
D|----------------------------|
A|----------------------------|
E|----------------------------|

~ 00:20 We're standing here by the abyss...
       Bm
E|---2h3p2p0--2-----2-----2-----2---| --2-----2-----2-----2---|
B|---------------0-----0-----0-----0| -----0-----0-----0-----0|
G|----------------------------------| ------------------------|
D|----------------------------------| ------------------------|
A|----------------------------------| ------------------------|
E|----------------------------------| ------------------------|

( Guitarra 3) Entra na segunda parte da intro* 
( Parte 2 )

E|----------------------------|
B|---0h2p0--------------------|
G|---------2------------------|
D|------------4-----4-----4---|
A|---------------2-----2-----2|
E|----------------------------|

E|----------------------------|
B|---0h2p0--------------------|
G|---------2------------------|
D|------------4-----4-----4---|
A|---------------5-----5-----5|
E|----------------------------|

E|----------------------------|
B|---3h5p3p2-(2)--------------|
G|------------2-----2-----2---|
D|---------------4-----4-----4|
A|----------------------------|
E|----------------------------|

~ 00:20 We're standing here by the abyss...

E|----------------------------------| ------------------------|
B|---3h5p3p2--3-----3-----3-----3---| --3-----3-----3-----3---|
G|---------------4-----4-----4-----4| -----4-----4-----4-----4|
D|----------------------------------| ------------------------|
A|----------------------------------| ------------------------|
E|----------------------------------| ------------------------|

( Guitarra 1 & 2)
( Primeira parte) x2                
  
D|2-----2-----2-----2-----|
B|---3-----3-----3-----3--|
G|------------------------|
D|------------------------|
A|------------------------|
E|------------------------|

D|2-----2-----2-----2-----|
B|---2-----2-----2-----2--|
G|------------------------|
D|------------------------|
A|------------------------|
E|------------------------|

D|2-----2-----2-----2---|--2-----2-----2-----2---|
B|---0-----0-----0-----0| -----0-----0-----0-----0|
G|----------------------| ------------------------|
D|----------------------| ------------------------|
A|----------------------| ------------------------|
E|----------------------| ------------------------|

( Guitarra 3 )
( Primeira parte) x2

E|------------------------|
A|3-----3-----3-----3-----|
G|---2-----2-----2-----2--|
D|------------------------|
A|------------------------|
E|------------------------|

E|------------------------|
A|2-----2-----2-----2-----|
G|---2-----2-----2-----2--|
D|------------------------|
A|------------------------|
E|------------------------|

E|----------------------| ------------------------|
A|3-----3-----3-----3---|--3-----3-----3-----3---|
G|---4-----4-----4-----4| -----4-----4-----4-----4|
D|----------------------| ------------------------|
A|----------------------| ------------------------|
E|----------------------| ------------------------|



Bm                   D
We're standing here by the abyss
F#m                   Bm
and the world is in flames
Bm                   D
Two star-crossed lovers reaching out
F#m                   Bm
To the beast with many names


E
He is
           Bm            G              D              A
He's the shining in the light without whom I cannot see
E
And He is
      Bm              G              D                   A
Insurrection, he is spite, he's the force that made me be.
Em            D                   A
He is nostro dis pater, nostr' alma mater.
Esus4   E
He is.

[Solo] Bm  D  F#m  Bm
       Bm  D  F#m  Bm

Bm                   D
Were' hiding here inside a dream
F#m                   Bm
and all our doubts are now destroyed
Bm                   D
The guidance of the morning stars
F#m                   Bm
Will lead the way, into the void

E
He is
           Bm            G              D             A
He's the shining in the light without whom I cannot see
E
And He is
      Bm              G              D                   A
Insurrection, he is spite, he's the force that made me be
Em            D                   A
He is nostro dis pater, nostr' alma mater
Esus4   E
He is

[Solo] Bm  D  F#m  Bm
       Bm  D  F#m  Bm

E
He is
           Bm            G              D             A
He's the shining in the light without whom I cannot see
E
And He Is
      Bm              G              D                  A
Insurrection, he is spite, he's the force that made me be
E
He is
           Bm            G              D            A
He's the shining in the light without whom I cannot see
E
And He is
         Bm            G          D                 A
The disobedience that holds us together
Em            D                   A
He is nostro dis pater, nostr' alma mater
E             D                 A
And we are falling over the precipice
Composição de A Ghoul Writer
26.369 exibições
  • Simplificar cifra
    • ½ Tom
    • A
    • Bb
    • B
    • C
    • Db
    • D
    • Eb
    • E
    • F
    • F#
    • G
    • Ab
  • Adicionar à lista

    0 comentários

    Mostrar mais comentários

    Conseguiu tocar?

    12 Tocaram 4 Ainda não

    Grave um vídeo tocando He Is e mande pra gente!

    00:00 / 00:00
    outros vídeos desta música
    repetir qualidade Automático
    Outros vídeos desta música
    00:00 / 00:00
    Automático

    Cifra Club Pro

    Aproveite o Cifra Club com benefícios exclusivos e sem anúncios
    Cifra Club Pro
    Aproveite o Cifra Club com benefícios exclusivos e sem anúncios
    OK