Cifra Club

If You Have Ghosts

Ghost

Cifra: Principal (violão e guitarra)
tom: G (forma dos acordes no tom de A) Afinação: D G C F A D
Lead

Intro and chorus

D|--------------------------------------------------------------------------------------------------
A|--------------------------------------------------------------------------------------------------
F|--------------------------------------------------------------------------------------------------
C|-----------------2-----------------6---4-----6----------------------------------------------------
G|-4--4--------2-----------------6------------------------------------------------------------------
D|-2--2----0-----------0-----4-------------------------4--------------------------------------------

Solo (1:32)

D|--------7-----7-----------7-------7------7--------------------------------------------------------
A|--16------7---------16------7---------------11--------11b--11--9----------------------------------
F|------------------------------------------------------------------11------------------------------
C|------------------------------------------------------------------------------------------9--11---
G|-----------------------------------------------------------------------------------9--11----------
D|------------------------------------------------------------------------------9--11---------------

D|--------------------------------------------------------------------------------------------------
A|-------------------------------------------11b----11-------11-------------11------------11--------
F|--------11--13--33--11--13--11--11--11-------------------------11--9--11------11--9--11-----11--9-
C|-11b----11--11--11--11--11--11--11--11----------------11------------------------------------------
G|--------------------------------------------------------------------------------------------------
D|--------------------------------------------------------------------------------------------------

D|--------------------------------------------------------------------------------------------------
A|-12--11------12--11--------12--11--9--11--9-------------------------------------------------------
F|---------9-----------8----------------------------------------------------------------------------
C|--------------------------------------------------------------------------------------------------
G|--------------------------------------------------------------------------------------------------
D|--------------------------------------------------------------------------------------------------

Ending (2:58)

D|--------------------------------------------------------------------------------------------------
A|----------10--9-----------------------------------10--9-------9--10--9----------------------------
F|-----------------11------------11--14--------------------11-------------9-------------------------
C|-----12----------------11--12-----------------12--------------------------------------------------
G|-12------------------------------------9--12-------------------------------------14--4--11--------
D|--------------------------------------------------------------------------------------------------


Rhytym (with capo on 2nd fret)


If you have ghosts

You have everything

If you have ghosts

You have everything

        E
You can say anything you want
            D
And you can do anything you wanna do
            F#     E
If you have ghosts
         F#
You have everything


One never does that

One never does that

         E
You can call it

Surprise there it is
      D
And a part of it is me
F# E        F#
One never does that

                       (riff 1)
In the night I am real
                       (riff 1)
In the night I am real

    E
The moon to the left

Is a part of my thoughts
      D
And a part of me is me
                F#
Wherever is the wind
          E        F#
In the night I am real


I don't want my
              (riff 1)
Fangs too long

I don't want my
              (riff 1)
Fangs too long

    E
The moon to the left

Is a part of my thoughts
      D
And a part of me is me
               F#
Forever is the wind
             E
I don't want my
          F#
Fangs too long

            D      F#
If you have ghosts
     A        E
You have everything
            D      F#
If you have ghosts
     A        E
You have everything
            D      F#
If you have ghosts
     A        E
You have everything
            D      F#
If you have ghosts
     A        E
You have everything

riff 1

E|---------------------0--------------------------------
B|--------0---------0-----------------------------------
G|-----2---------2--------------------------------------
D|--4---------4-----------------------------------------
A|------------------------------------------------------
E|------------------------------------------------------
00:00 / 00:00
Outros vídeos desta música
Repetir
Outros vídeos desta música
Composição de Rocky Erickson
Colaboração e revisão:
  • Arthur Medeiros
12.178 exibições
    • ½ Tom
    • A
    • Bb
    • B
    • C
    • Db
    • D
    • Eb
    • E
    • F
    • F#
    • G
    • Ab
  • Adicionar à lista

    0 comentários

    Ver todos os comentários

    Conseguiu tocar?

    3 Tocaram 2 Ainda não

    Grave um vídeo tocando If You Have Ghosts e nos envie!

    Entre para oCifra Club PRO

    Tenha acesso a benefícios exclusivos no App e no Site

    • Chega de anúncios

    • Prioridade de compra em lançamentos

    • Mais recursos no app do Afinador

    • Atendimento Prioritário

    • Descontos nos produtos Cifra Club

    • Ajude a produzir mais conteúdo

    00:00 / 00:00

    Cifra Club Pro

    Aproveite o Cifra Club com benefícios exclusivos e sem anúncios
    Cifra Club Pro
    Aproveite o Cifra Club com benefícios exclusivos e sem anúncios
    OK