Cifra Club

Square Hammer

Ghost

Cifra: Principal (violão e guitarra)
tom: F (forma dos acordes no tom de G) Afinação: D G C F A D
   Intro
(Lead Guitar) Fire part

D|--------------------------------|
A|--------------------------------|
F|--------------------------------|
C|--2--4-5--4-5--4-5-0-4-5-0------| (8x)
G|--------3----2------------------|
D|--------------------------------|

(Rhythm Guitar) Quintessence part
      E5     C5     B5     D5
D|--------------------------------|
A|--------------------------------|
F|--9-9-9--5-5-5--4-4-4-7-7-7-----|
C|--9-9-9--5-5-5--4-4-4-7-7-7-----| (3x)
G|--7-7-7--3-3-3--2-2-2-5-5-5-----|
D|--------------------------------|

D|--------------------------------|
A|--------------------------------|
F|--------------------------------|
C|--2--4-5--4-5--4-5-0-4-5-0------|
G|--------3----2------------------|
D|--------------------------------|

   Primeira Parte 
(Lead & Rhythm guitar)
      E5     C5      B5     D5
D|--------------------------------|
A|--------------------------------|
F|--------------------------------|
C|--2-2-2-2-----------------------| (3x)
G|----------3-3-3-2-2-2-2-5-5-5-5-|
D|--------------------------------|
p.m * * * * * * * * * * * * * * *

D|--------------------------------|
A|--------------------------------|
F|--------------------------------|
C|--2--4-5--4-5--4-5-0-4-5-0------|
G|--------3----2------------------|
D|--------------------------------|
      E5      C5     B5     D5
D|--------------------------------|
A|--------------------------------|
F|--------------------------------|
C|--2-2-2-2-----------------------| (3x)
G|----------3-3-3-2-2-2-2-5-5-5-5-|
D|--------------------------------|
p.m * * * * * * * * * * * * * * *

D|--------------------------------|
A|--------------------------------|
F|--------------------------------|
C|-/2--4-5--4-5--4-5-0-4-5-0------|
G|--------3----2------------------|
D|--------------------------------|

Refrão 1
    ...Are you on the square?...

(Lead Guitar)
(Part 1)
        E5     C5
D|--------------------------------|
A|--------------------------------|
F|---9-9-9-9-5-5-5--------7~------|
C|---9-9-9-9-5-5-5------5---------|
G|---7-7-7-7-3-3-3----------------|
D|------------------3/8-----------|
           G5      D5
D|--------------------------------|
A|--------------------------------|
F|---12-12-12-12-7-7-7------------|
C|---12-12-12-12-7-7-7------------|
G|---10-10-10-10-5-5-5------5~----|
D|----------------------5-7-------|
        E5     C5     C5
D|--------------------------------|
A|--------------------------------|
F|--/9-9-9-9-5-5-5--5-5-5---------|
C|--/9-9-9-9-5-5-5--5-5-5---------|
G|--/7-7-7-7-3-3-3--3-3-3---------|
D|--------------------------------|

D|--------------------------------|
A|--------------------------------|
F|--------------------------------|
C|----------5-7-5-----------------|
G|------5-0-------5~------5--5-7--|
D|---3-0--------------5-7---7-----|
 p.m * * * *          * *   * 

(Part 2) 
       E5      C5
D|--------------------------------|
A|--------------------------------|
F|---9-9-9-9-5-5-5--------7~------|
C|---9-9-9-9-5-5-5------5---------|
G|---7-7-7-7-3-3-3----------------|
D|------------------3/8-----------|
          G5       D5
D|--------------------------------|
A|--------------------------------|
F|---12-12-12-12-7-7-7------------|
C|---12-12-12-12-7-7-7------------|
G|---10-10-10-10-5-5-5------5~----|
D|----------------------5-7-------|
        E5     C5     C5
D|--------------------------------|
A|--------------------------------|
F|--/9-9-9-9-5-5-5--5-5-5---------|
C|--/9-9-9-9-5-5-5--5-5-5---------|
G|--/7-7-7-7-3-3-3--3-3-3---------|
D|--------------------------------|

D|--------------------------------|
A|--------------------------------|
F|--------------------------------|
C|----------5-7-5-----------------|
G|------5-0-------5~------5~------|
D|---3-0--------------5-7---------|
 p.m * * * *          * *   

Refrão 1
(Rhythm guitar)
(Part 1)
       E5      C5     C5
D|--------------------------------|
A|--------------------------------|
F|-----------5-5-5--5-5-5---------|
C|---2-2-2-2-5-5-5--5-5-5---------|
G|---2-2-2-2-3-3-3--3-3-3---------|
D|---0-0-0-0----------------------|
       G5      D5      D5
D|--------------------------------|
A|--------------------------------|
F|-----------7-7-7--7-7-7---------|
C|---5-5-5-5-7-7-7--7-7-7---------|
G|---5-5-5-5-5-5-5--5-5-5---------|
D|---3-3-3-3----------------------|
       E5      C5     C5
D|--------------------------------|
A|--------------------------------|
F|-----------5-5-5--5-5-5---------|
C|---2-2-2-2-5-5-5--5-5-5---------|
G|---2-2-2-2-3-3-3--3-3-3---------|
D|---0-0-0-0----------------------|

D|--------------------------------|
A|--------------------------------|
F|--------------------------------|
C|----------5-7-5-----------------|
G|------5-0-------5~------5--5-7--|
D|---3-0--------------5-7---7-----|
 p.m * * * *          * *   * 

(Part 2)
       E5      C5     C5
D|--------------------------------|
A|--------------------------------|
F|-----------5-5-5--5-5-5---------|
C|---2-2-2-2-5-5-5--5-5-5---------|
G|---2-2-2-2-3-3-3--3-3-3---------|
D|---0-0-0-0----------------------|
       G5      D5     D5
D|--------------------------------|
A|--------------------------------|
F|-----------7-7-7--7-7-7---------|
C|---5-5-5-5-7-7-7--7-7-7---------|
G|---5-5-5-5-5-5-5--5-5-5---------|
D|---3-3-3-3----------------------|
       E5      C5     C5
D|--------------------------------|
A|--------------------------------|
F|-----------5-5-5--5-5-5---------|
C|---2-2-2-2-5-5-5--5-5-5---------|
G|---2-2-2-2-3-3-3--3-3-3---------|
D|---0-0-0-0----------------------|

D|--------------------------------|
A|--------------------------------|
F|--------------------------------|
C|----------5-7-5-----------------|
G|------5-0-------5~------5~------|
D|---3-0--------------5-7---------|
 p.m * * * *          * *    

Segunda Parte
(Lead & Rhythm guitar)

D|--------------------------------|
A|--------------------------------|
F|--------------------------------|
C|-/2--4-5--4-5--4-5-0-4-5-0------|
G|--------3----2------------------|
D|--------------------------------|
      E5     C5      B5     D5
D|--------------------------------|
A|--------------------------------|
F|--------------------------------|
C|--2-2-2-2-----------------------| (3x)
G|----------3-3-3-2-2-2-2-5-5-5-5-|
D|--------------------------------|
p.m * * * * * * * * * * * * * * *

D|--------------------------------|
A|--------------------------------|
F|--------------------------------|
C|--2--4-5--4-5--4-5-0-4-5-0------|
G|--------3----2------------------|
D|--------------------------------|
      E5     C5      B5     D5
D|--------------------------------|
A|--------------------------------|
F|--------------------------------|
C|--2-2-2-2-----------------------| (3x)
G|----------3-3-3-2-2-2-2-5-5-5-5-|
D|--------------------------------|
p.m * * * * * * * * * * * * * * *

D|--------------------------------|
A|--------------------------------|
F|--------------------------------|
C|-/2--4-5--4-5--4-5-0-4-5-0------|
G|--------3----2------------------|
D|--------------------------------|

Refrão 2

...Are you on the square?...

(Lead Guitar)
(Part 1)
       E5     C5
D|--------------------------------|
A|--------------------------------|
F|---9-9-9-9-5-5-5--------7~------|
C|---9-9-9-9-5-5-5------5---------|
G|---7-7-7-7-3-3-3----------------|
D|------------------3/8-----------|
       G5          D5
D|--------------------------------|
A|--------------------------------|
F|---12-12-12-12-7-7-7------------|
C|---12-12-12-12-7-7-7------------|
G|---10-10-10-10-5-5-5------5~----|
D|----------------------5-7-------|
       E5      C5     C5
D|--------------------------------|
A|--------------------------------|
F|--/9-9-9-9-5-5-5--5-5-5---------|
C|--/9-9-9-9-5-5-5--5-5-5---------|
G|--/7-7-7-7-3-3-3--3-3-3---------|
D|--------------------------------|

D|--------------------------------|
A|--------------------------------|
F|--------------------------------|
C|----------5-7-5-----------------|
G|------5-0-------5~------5--5-7--|
D|---3-0--------------5-7---7-----|
 p.m * * * *          * *   * 

(Part 2) 
       E5      C5
D|--------------------------------|
A|--------------------------------|
F|---9-9-9-9-5-5-5--------7~------|
C|---9-9-9-9-5-5-5------5---------|
G|---7-7-7-7-3-3-3----------------|
D|------------------3/8-----------|
       G5          D5
D|--------------------------------|
A|--------------------------------|
F|---12-12-12-12-7-7-7------------|
C|---12-12-12-12-7-7-7------------|
G|---10-10-10-10-5-5-5------5~----|
D|----------------------5-7-------|
       E5      C5     C5
D|--------------------------------|
A|--------------------------------|
F|--/9-9-9-9-5-5-5--5-5-5---------|
C|--/9-9-9-9-5-5-5--5-5-5---------|
G|--/7-7-7-7-3-3-3--3-3-3---------|
D|--------------------------------|

D|--------------------------------|
A|--------------------------------|
F|--------------------------------|
C|----------5-7-5-----------------|
G|------5-0-------5~------5~------|
D|---3-0--------------5-7---------|
 p.m * * * *          * *   

Refrão 2
(Rhythm guitar)
(Part 1)
       E5      C5     C5
D|--------------------------------|
A|--------------------------------|
F|-----------5-5-5--5-5-5---------|
C|---2-2-2-2-5-5-5--5-5-5---------|
G|---2-2-2-2-3-3-3--3-3-3---------|
D|---0-0-0-0----------------------|
       G5      D5     D5
D|--------------------------------|
A|--------------------------------|
F|-----------7-7-7--7-7-7---------|
C|---5-5-5-5-7-7-7--7-7-7---------|
G|---5-5-5-5-5-5-5--5-5-5---------|
D|---3-3-3-3----------------------|
       E5      C5     C5
D|--------------------------------|
A|--------------------------------|
F|-----------5-5-5--5-5-5---------|
C|---2-2-2-2-5-5-5--5-5-5---------|
G|---2-2-2-2-3-3-3--3-3-3---------|
D|---0-0-0-0----------------------|

D|--------------------------------|
A|--------------------------------|
F|--------------------------------|
C|----------5-7-5-----------------|
G|------5-0-------5~------5--5-7--|
D|---3-0--------------5-7---7-----|
 p.m * * * *          * *   * 

(Part 2)
       E5      C5     C5
D|--------------------------------|
A|--------------------------------|
F|-----------5-5-5--5-5-5---------|
C|---2-2-2-2-5-5-5--5-5-5---------|
G|---2-2-2-2-3-3-3--3-3-3---------|
D|---0-0-0-0----------------------|
       G5      D5     D5
D|--------------------------------|
A|--------------------------------|
F|-----------7-7-7--7-7-7---------|
C|---5-5-5-5-7-7-7--7-7-7---------|
G|---5-5-5-5-5-5-5--5-5-5---------|
D|---3-3-3-3----------------------|
       E5      C5     C5
D|--------------------------------|
A|--------------------------------|
F|-----------5-5-5--5-5-5---------|
C|---2-2-2-2-5-5-5--5-5-5---------|
G|---2-2-2-2-3-3-3--3-3-3---------|
D|---0-0-0-0----------------------|

D|--------------------------------|
A|--------------------------------|
F|--------------------------------|
C|----------5-7-5-----------------|
G|------5-0-------5~------5~------|
D|---3-0--------------5-7---------|
 p.m * * * *          * *    

Ponte solo
(Lead guitar)

D|--------------------------------|
A|--------------------------------|
D|--------------------------------|
C|---2-2-------4-5-0--------------|
G|---0-0--0-2-3-------------------|
D|--------------------------------|

(Rhythm guitar)

D|--------------------------------|
A|--------------------------------|
D|--------------------------------|
C|---2-2-------4-5-0-4-5-0--------|
G|---0-0--0-2-3-------------------|
D|--------------------------------|

Solo
(Lead guitar) Solo and Rhythm

D|--------------------------------|
A|----------------------12--------|
D|------7-9---11---12------9-9~---|
C|---7h9---7-9--7-9---9-----------|
G|--------------------------------|
D|--------------------------------|

D|--------------------------------|
A|--------------------------------|
D|---7h9p7h9p7---9---7h9p7h9p7----|
C|-------------9---9-----------9--|
G|--------------------------------|
D|--------------------------------|

D|--------------------------------|
A|---7b8r7-5-7b8r7-7--------------|
D|-------------------7------------|
C|-------------------------5-7----|
G|---------------------9~---------|
D|--------------------------------|

D|--------------------------------|
A|--------------------------------|
D|-9-11-12---11-12--11-12--11-12--|
C|--------10------9------12-----12|
G|--------------------------------|
D|--------------------------------|
      E5     C5      B5     D5
D|--------------------------------|
A|--------------------------------|
F|--9-9-9--5-5-5--4-4-4-7-7-7-----|
C|--9-9-9--5-5-5--4-4-4-7-7-7-----| (3x)
G|--7-7-7--3-3-3--2-2-2-5-5-5-----|
D|--------------------------------|

D|--------------------------------|
A|--------------------------------|
D|--------------------------------|
C|---2-2-------4-5-0-4-5-0--------|
G|---0-0--0-2-3-------------------|
D|--------------------------------|

(Rhythm guitar) Rhythm and solo
      E5     C5      B5     D5
D|--------------------------------|
A|--------------------------------|
F|--9-9-9--5-5-5--4-4-4-7-7-7-----|
C|--9-9-9--5-5-5--4-4-4-7-7-7-----| (3x)
G|--7-7-7--3-3-3--2-2-2-5-5-5-----|
D|--------------------------------|

D|--------------------------------|
A|--------------------------------|
D|--------------------------------|
C|--------------------------------|
G|---7-9-10--9-10--9-10--9-10-----|
D|---------8-----7-----10----10---|

D|--------------------------------|
A|--------------------------------|
D|---7/9-9-0-9-0-9\7--7\4-4-4/7-7-|
C|---7/9-9-0-9-0-9\7--7\4-4-4/7-7-|
G|--------------------------------|
D|--------------------------------|

D|--------------------------------|
A|--------------------12------10--|
D|---7/9-9-0-9-0-9\7----121212--11|
C|---7/9-9-0-9-0-9\7--------------|
G|--------------------------------|
D|--------------------------------|

D|--------------------------------|
A|---15-17-19b20r19-17-15---------|
D|-----------------------16-------|
C|--------------------------------|
G|--------------------------------|
D|--------------------------------|

D|----------------------------------------|
A|-15-15h17--15h17--15h17--15h17--15h17~--|
D|---------16-----16-----16-----16--------|
C|----------------------------------------|
G|----------------------------------------|
D|----------------------------------------|

Refrão 3 e final

    ...Are you on the square?...

(Lead Guitar)
(Part 1)
      E5       C5
D|--------------------------------|
A|--------------------------------|
F|---9-9-9-9-5-5-5--------7~------|
C|---9-9-9-9-5-5-5------5---------|
G|---7-7-7-7-3-3-3----------------|
D|------------------3/8-----------|
      G5           D5
D|--------------------------------|
A|--------------------------------|
F|---12-12-12-12-7-7-7------------|
C|---12-12-12-12-7-7-7------------|
G|---10-10-10-10-5-5-5------5~----|
D|----------------------5-7-------|
      E5       C5     C5
D|--------------------------------|
A|--------------------------------|
F|--/9-9-9-9-5-5-5--5-5-5---------|
C|--/9-9-9-9-5-5-5--5-5-5---------|
G|--/7-7-7-7-3-3-3--3-3-3---------|
D|--------------------------------|

D|--------------------------------|
A|--------------------------------|
F|--------------------------------|
C|----------5-7-5-----------------|
G|------5-0-------5~------5--5-7--|
D|---3-0--------------5-7---7-----|
 p.m * * * *          * *   * 

(Part 2) 
      E5      C5
D|--------------------------------|
A|--------------------------------|
F|---9-9-9-9-5-5-5--------7~------|
C|---9-9-9-9-5-5-5------5---------|
G|---7-7-7-7-3-3-3----------------|
D|------------------3/8-----------|
      G5           D5
D|--------------------------------|
A|--------------------------------|
F|---12-12-12-12-7-7-7------------|
C|---12-12-12-12-7-7-7------------|
G|---10-10-10-10-5-5-5------5~----|
D|----------------------5-7-------|
       E5      C5     C5
D|--------------------------------|
A|--------------------------------|
F|--/9-9-9-9-5-5-5--5-5-5---------|
C|--/9-9-9-9-5-5-5--5-5-5---------|
G|--/7-7-7-7-3-3-3--3-3-3---------|
D|--------------------------------|

D|--------------------------------|
A|--------------------------------|
F|--------------------------------|
C|----------5-7-5-----------------|
G|------5-0-------5~------5~------|
D|---3-0--------------5-7---------|
 p.m * * * *          * *   

Refrão 3
(Rhythm guitar)
(Part 1)
      E5       C5     C5
D|--------------------------------|
A|--------------------------------|
F|-----------5-5-5--5-5-5---------|
C|---2-2-2-2-5-5-5--5-5-5---------|
G|---2-2-2-2-3-3-3--3-3-3---------|
D|---0-0-0-0----------------------|
      G5       D5     D5
D|--------------------------------|
A|--------------------------------|
F|-----------7-7-7--7-7-7---------|
C|---5-5-5-5-7-7-7--7-7-7---------|
G|---5-5-5-5-5-5-5--5-5-5---------|
D|---3-3-3-3----------------------|
      E5       C5     C5
D|--------------------------------|
A|--------------------------------|
F|-----------5-5-5--5-5-5---------|
C|---2-2-2-2-5-5-5--5-5-5---------|
G|---2-2-2-2-3-3-3--3-3-3---------|
D|---0-0-0-0----------------------|

D|--------------------------------|
A|--------------------------------|
F|--------------------------------|
C|----------5-7-5-----------------|
G|------5-0-------5~------5--5-7--|
D|---3-0--------------5-7---7-----|
 p.m * * * *          * *   * 

(Part 2)
      E5       C5      C5
D|--------------------------------|
A|--------------------------------|
F|-----------5-5-5--5-5-5---------|
C|---2-2-2-2-5-5-5--5-5-5---------|
G|---2-2-2-2-3-3-3--3-3-3---------|
D|---0-0-0-0----------------------|
      G5       D5      D5
D|--------------------------------|
A|--------------------------------|
F|-----------7-7-7--7-7-7---------|
C|---5-5-5-5-7-7-7--7-7-7---------|
G|---5-5-5-5-5-5-5--5-5-5---------|
D|---3-3-3-3----------------------|
      E5       C5      C5
D|--------------------------------|
A|--------------------------------|
F|-----------5-5-5--5-5-5---------|
C|---2-2-2-2-5-5-5--5-5-5---------|
G|---2-2-2-2-3-3-3--3-3-3---------|
D|---0-0-0-0----------------------|

D|--------------------------------|
A|--------------------------------|
F|--------------------------------|
C|----------5-7-5-----------------|
G|------5-0-------5~------5~------|
D|---3-0--------------5-7---------|
 p.m * * * *          * *    

Final

 Right here right now...
       E5     C5     C5
D|--------------------------------|
A|--------------------------------|
F|-----------5-5-5--5-5-5---------|
C|---2-2-2-2-5-5-5--5-5-5---------|
G|---2-2-2-2-3-3-3--3-3-3---------|
D|---0-0-0-0----------------------|
       G5     D5     D5
D|--------------------------------|
A|--------------------------------|
F|-----------7-7-7--7-7-7---------|
C|---5-5-5-5-7-7-7--7-7-7---------|
G|---5-5-5-5-5-5-5--5-5-5---------|
D|---3-3-3-3----------------------|
       E5     C5     C5
D|--------------------------------|
A|--------------------------------|
F|-----------5-5-5--5-5-5---------|
C|---2-2-2-2-5-5-5--5-5-5---------|
G|---2-2-2-2-3-3-3--3-3-3---------|
D|---0-0-0-0----------------------|
        G5    D5     D5
D|--------------------------------|
A|--------------------------------|
F|-----------7-7-7--7-7-7---------|
C|---5-5-5-5-7-7-7--7-7-7---------|
G|---5-5-5-5-5-5-5--5-5-5-----5~--|
D|---3-3-3-3---------------5-7----|
                       p.m * *
00:00 / 00:00
Outros vídeos desta música
Repetir
Outros vídeos desta música
Composição de A Ghoul Writer
Colaboração e revisão:
  • Heavy-Lucker '
  • jean kennyd
23.177 exibições
    • ½ Tom
    • A
    • Bb
    • B
    • C
    • Db
    • D
    • Eb
    • E
    • F
    • F#
    • G
    • Ab
  • Adicionar à lista

    0 comentários

    Ver todos os comentários

    Conseguiu tocar?

    5 Tocaram 1 Ainda não

    Grave um vídeo tocando Square Hammer e nos envie!

    Entre para oCifra Club PRO

    Tenha acesso a benefícios exclusivos no App e no Site

    • Chega de anúncios

    • Prioridade de compra em lançamentos

    • Mais recursos no app do Afinador

    • Atendimento Prioritário

    • Descontos nos produtos Cifra Club

    • Ajude a produzir mais conteúdo

    00:00 / 00:00

    Cifra Club Pro

    Aproveite o Cifra Club com benefícios exclusivos e sem anúncios
    Cifra Club Pro
    Aproveite o Cifra Club com benefícios exclusivos e sem anúncios
    OK