Notificações Amigos pendentes

      Ghost

      Year Zero

      8.550 exibições
      Tom: A
      b = bend
      br = bend e release
      \/ = slide
      ~ = vibrato
       = Hârmonico natural
      . = Palm mute
      x = dead note
      h = hammer on
      p = pull off
      
      Intro Riff1
      
      
      E|-----------------------------------|          E|----------------|
      B|-----------------------------------|          B|----------------|
      G|-----------------------------------|7x  na 8x G|----------------|
      D|-----------------------------------|          D|----------------|
      A|-----------------------------------|          A|----------------|
      D|-5-0-0-0-0-5-0-0-0-0-0-0-0-0-------|          D|-5-0-0-0-0-5----|
      
         . . . . . . . . . . . .                     . . . . 
      
      Riff 2
      
      
      E|---------------------------------------------------------|-------------|
      B|---------------------------------------------------------|-------------|
      G|----------10/-------------9/------------6-7/-------------|-------------| 2x
      D|-------11-----------------x-------------x-x--------------|-------------|
      A|-10h12--------------------7/------------4-5/-------------|-------------|
      D|-------------000000000000----0000000000------000000000000|-0-0-0-0-0-0-|
      
                     ............    ,,,,,,,,,,      ,,,,,,,,,,,,    . .   . .
      
      Versos
      
      
      E|-----|--------------------------------------|         e|----------------------------|
      B|-----|--------------------------------------|         B|----------------------------|
      G|---8-|--------------------------------------|7x na 8x G|--------------------------8-|
      D|---8-|--------------------------------------|         D|--------------------------8-|
      A|---6-|--------------------------------------|         A|--------------------------6-|
      D|-----|--0-0-0-0-0-0-0-0-0-0-0-0-0-0-0-0-----|         D|-0-0-0-0-0-0-0-0-0-0-0-0----|
      
                . . . . . . . . . . . . . . . .                  . . . . . . . . . . . .
      Riff 3
      
      
      E|--------------------------------------------------|
      B|--------------------------------------------------|
      G|----------------------------------6------6--------|
      D|----------------------------------6------6--------|
      A|-5...3...6...5...5...3...1...-----4------4--------|
      D|--------------------------------------------------|
      
         .   .   .   .   .   .   .
      
      Refrão
      
      
      E|----------------------------------------------------------------------------|
      B|----------------------------------------------------------------------------|
      G|--7-7--5-7--7-5-7--9-9-9-9-9-9-9-9-10-10-10-10-10-10-10-10------------------|  2x
      D|--7-7--5-7--7-5-7--9-9-9-9-9-9-9-9-10-10-10-10-10-10-10-10------------------|
      A|--5-5--3-5--5-3-5--7-7-7-7-7-7-7-7-8--8--8--8--8--8--8--8-------------------|
      D|----------------------------------------------------------------------------|
      
      
      Riff 2
      
      
      E|---------------------------------------------------------|-------------|
      B|---------------------------------------------------------|-------------|
      G|----------10/-------------9/------------6-7/-------------|-------------| 2x
      D|-------11-----------------x-------------x-x--------------|-------------|
      A|-10h12--------------------7/------------4-5/-------------|-------------|
      D|-------------000000000000----0000000000------000000000000|-0-0-0-0-0-0-|
      
                     ............    ,,,,,,,,,,      ,,,,,,,,,,,,    . .   . .
      
      2º Verso
      
      
      E|-----|--------------------------------------|         e|----------------------------|
      B|-----|--------------------------------------|         B|----------------------------|
      G|---8-|--------------------------------------|7x na 8x G|--------------------------8-|
      D|---8-|--------------------------------------|         D|--------------------------8-|
      A|---6-|--------------------------------------|         A|--------------------------6-|
      D|-----|--0-0-0-0-0-0-0-0-0-0-0-0-0-0-0-0-----|         D|-0-0-0-0-0-0-0-0-0-0-0-0----|
      
                . . . . . . . . . . . . . . . .                  . . . . . . . . . . . .
      
      Riff 3 pequena variação no final
      
      
      E|--------------------------------------------------|
      B|--------------------------------------------------|
      G|----------------------------------11--11/5--5-----|
      D|----------------------------------11--11/5--5-----|
      A|-5...3...6...5...5...3...1...-----9---9-/3--3-----|
      D|--------------------------------------------------|
      
         .   .   .   .   .   .   .
      
      Refrão ponte para o solo
      
      
      E|----------------------------------------------------------------------------|
      B|----------------------------------------------------------------------------|
      G|--7-7--5-7--7-5-7--9-9-9-9-9-9-9-9-10-10-10-10-10-10-10-10------------------| 1x
      D|--7-7--5-7--7-5-7--9-9-9-9-9-9-9-9-10-10-10-10-10-10-10-10------------------|
      A|--5-5--3-5--5-3-5--7-7-7-7-7-7-7-7-8--8--8--8--8--8--8--8-------------------|
      D|----------------------------------------------------------------------------|
      
      
      
      solo
      
      parte 1
      
      
      E|--------------------------------------------|
      B|--------------------------------------------|
      G|--\6---6-7-7b9r7p6-7----9-10--7~~~~---------|
      D|-----7--------------------------------------|
      A|--------------------------------------------|
      D|--------------------------------------------|
      
      
      parte 2
      
      
      E|--------------------------------------------|
      B|--------------------10b9r10----10~~---------|
      G|----7---10~~---7----------------------------|
      D|--------------------------------------------|
      A|--------------------------------------------|
      D|--------------------------------------------|
      
      
      parte 3
      
      
      E|--------------------------------------------|
      B|--------------------------------------------|
      G|-\6---6-7---9b10r9p7--9---9brp7-------------|
      D|----7---------------------------------------|
      A|--------------------------------------------|
      D|--------------------------------------------|
      
      
      parte 4
      
      
      E|--------------------------------------------|
      B|-------------------10-----------------------|
      G|--7--10~~-----~7--------9~~~----------------|
      D|--------------------------------------------|
      A|--------------------------------------------|
      D|--------------------------------------------|
      
      
      parte 5
      
      
      E|--------------------------------------------|
      B|--------------------------------------------|
      G|---\5---5--7--9--7--5~~------9-10-9----7~~~~|
      D|------5-------------------------------------|
      A|--------------------------------------------|
      D|--------------------------------------------|
      
      
      parte 6
      
      
      E|--------------------------------------------|
      B|--------------------------------------------|
      G|--7/10~~---5-5/7----------------------------|
      D|-----------------5~~------------------------|
      A|----------------------7\\0------------------|
      D|--------------------------------------------|
      
      
      parte 7
      
      
      E|--------------------------------------------|
      B|--------------------------------------------|
      G|--\6---6-7-7b9r7p6-7----9-10--7~~~~---------|
      D|-----7--------------------------------------|
      A|--------------------------------------------|
      D|--------------------------------------------|
      
      
      parte 8
      
      
      E|--------------------------------------------|
      B|---------------10b12r10--10~~---------------|
      G|--7-10~~---7--------------------9~~~~~~-----|
      D|--------------------------------------------|
      A|--------------------------------------------|
      D|--------------------------------------------|
      
      
      final do solo
      
      
      E|----------------------------------------------------------------|
      B|----------------------------------------------------------------|
      G|----------------3-3-3-3-3-3-3-3-2-2-2-2-2-2-2-2-6-6-6-6-6-6-6-6-|
      D|0-0-0-0-0-0-0-0-3-3-3-3-3-3-3-3-2-2-2-2-2-2-2-2-6-6-6-6-6-6-6-6-|
      A|0-0-0-0-0-0-0-0-1-1-1-1-1-1-1-1-0-0-0-0-0-0-0-0-4-4-4-4-4-4-4-4-|
      D|0-0-0-0-0-0-0-0-------------------------------------------------|
      
      
      E|------------------------------------------------------------------------------------|
      B|------------------------------------------------------------------------------------|
      G|----------------3-3-3-3-3-3-3-3-2-2-2-2-2-2-2-2-5-5-5-5-5-5-5-5-7-7-7-7-7-7-7-7-----|
      D|0-0-0-0-0-0-0-0-3-3-3-3-3-3-3-3-2-2-2-2-2-2-2-2-5-5-5-5-5-5-5-5-7-7-7-7-7-7-7-7-----|
      A|0-0-0-0-0-0-0-0-1-1-1-1-1-1-1-1-0-0-0-0-0-0-0-0-3-3-3-3-3-3-3-3-5-5-5-5-5-5-5-5-----|
      D|0-0-0-0-0-0-0-0---------------------------------------------------------------------|
      
      
      E|-----------------------------------------------|
      B|-----------------------------------------------|
      G|3-3-3-3-7-7-7-7-5-5-5-5-5-5-5-5-6-6-6-6-6-6-6--|
      D|3-3-3-3-7-7-7-7-5-5-5-5-5-5-5-5-6-6-6-6-6-6-6--|
      A|1-1-1-1-5-5-5-5-3-3-3-3-3-3-3-3-4-4-4-4-4-4-4--|
      D|-----------------------------------------------|
      
      
      E|-----------------------------------------------------------------|
      B|-----------------------------------------------------------------|
      G|----------------3-3-3-3-3-3-3-3-2-2-2-2-2-2-2-2-2-2-2-2-2-2-2-2--|
      D|0-0-0-0-0-0-0-0-3-3-3-3-3-3-3-3-2-2-2-2-2-2-2-2-2-2-2-2-2-2-2-2--|
      A|0-0-0-0-0-0-0-0-1-1-1-1-1-1-1-1-0-0-0-0-0-0-0-0-0-0-0-0-0-0-0-0--|
      D|0-0-0-0-0-0-0-0--------------------------------------------------|
      
      
      
      Refrão final com variação
      
      
      E|--------------------------------------------------------|
      B|--------------------------------------------------------|
      G|-----------------------5-5-5-5-5-5-5-5-8-8-8-8-8-8-8-8--|
      D|-0-0---------\/0-------5-5-5-5-5-5-5-5-8-8-8-8-8-8-8-8--|
      A|-0-0---------\/0-------3-3-3-3-3-3-3-3-6-6-6-6-6-6-6-6--|
      D|-0-0---------\/0----------------------------------------|
      
      
      E|---------------------------------------------------------------------------|
      B|---------------------------------------------------------------------------|
      G|---------------------------------5-5-5-5-5-5-5-5-5-12-12-12-12-12-12-12-12-|
      D|-0-0-0-0-0-0-0-0-0-0-0-0-0-0-0-0-5-5-5-5-5-5-5-5-5-12-12-12-12-12-12-12-12-|
      A|-0-0-0-0-0-0-0-0-0-0-0-0-0-0-0-0-3-3-3-3-3-3-3-3-3-10-10-10-10-10-10-10-10-|
      D|-0-0-0-0-0-0-0-0-0-0-0-0-0-0-0-0-------------------------------------------|
      
      
      E|---------------------------------------------------------------------------|
      B|---------------------------------------------------------------------------|
      G|---------------------------------5-5-5-5-5-5-5-5-5-8-8-8-8-8-8-8-8---------|
      D|-0-0-0-0-0-0-0-0-0-0-0-0-0-0-0-0-5-5-5-5-5-5-5-5-5-8-8-8-8-8-8-8-8---------|
      A|-0-0-0-0-0-0-0-0-0-0-0-0-0-0-0-0-3-3-3-3-3-3-3-3-3-6-6-6-6-6-6-6-6---------|
      D|-0-0-0-0-0-0-0-0-0-0-0-0-0-0-0-0-------------------------------------------|
      
      
      E|---------------------------------------------------------------------------|
      B|---------------------------------------------------------------------------|
      G|---------------------------------5-5-5-5-5-5-5-5-5-12-12-12-12-12-12-12-12-|
      D|-0-0-0-0-0-0-0-0-0-0-0-0-0-0-0-0-5-5-5-5-5-5-5-5-5-12-12-12-12-12-12-12-12-|
      A|-0-0-0-0-0-0-0-0-0-0-0-0-0-0-0-0-3-3-3-3-3-3-3-3-3-10-10-10-10-10-10-10-10-|
      D|-0-0-0-0-0-0-0-0-0-0-0-0-0-0-0-0-------------------------------------------|
      
      
      Final
      
      
      E|---------------------------------------------------------------------------------|
      B|-----------------------------10-10-10-10-----------------------------------------|
      G|-7-7-7-7-9-9-9-9-10-10-10-10-------------10-9----10-9----10-9-10-9---10-9---10-9-|
      D|----------------------------------------------10------10-----------8------8------|
      A|---------------------------------------------------------------------------------|
      D|---------------------------------------------------------------------------------|
      
      
      E|-------------------------------------------------------------------------------|
      B|-----------------------------10-10-10-10---------------------------------------|
      G|-7-7-7-7-9-9-9-9-10-10-10-10-------------10-9----10-9----10-9-5-4---5-4---5-4--|
      D|----------------------------------------------10------10----------5-----5------|
      A|-------------------------------------------------------------------------------|
      D|-------------------------------------------------------------------------------|
      
        Composição: A Ghoul WriterColaboração e revisão:
        • jean
        • lucas96000
        • arthurmedeirosu

        Comentários 4

        140 .
        140 cancelar

        conseguiu tocar?

        covers

        Grave um vídeo tocando Year Zero e mande pra gente!

        Ex.: http://www.youtube.com/watch?v=0IvSvIwGdwk
        ver covers de outras músicas »
        0:00 / 0:00

        Capítulos

          1 versão de violão dificuldade exibições contribuição e correção
          1 versão de guitarra dificuldade exibições contribuição e correção
          1 versão de cavaco dificuldade exibições contribuição e correção
          1 versão de teclado dificuldade exibições contribuição e correção
          1 versão de Guitar Proformatodownloadscontribuição
          play/pausefechar subir/descer velocidade
          6ª corda E5ª corda A4ª corda D3ª corda G2ª corda B1ª corda E
            acordes
            publicidade
            fechar
            ok