Cifra Club

Caçador de Corações

Gian e Giovani

Cifra: Principal (violão e guitarra)
tom: D
[Intro] F#7  Bm  A7  D 
        F#7  Bm  A7  G  A7  D  A7

E|----------------------------------------------------|
B|----------------------------------------------------|
G|-----------3---------------4---------------4/6------|
D|-4-4-4/3-4-------4-4-4/3-4-------4-4-4/3-4----------|
A|----------------------------------------------------|
E|----------------------------------------------------|

E|----------------------------------------------------|
B|-------5-7-7h8-7----7-7-7-8-7-5----5-5-5-7-5-3------|
G|-4-6-7----------------------------------------------|
D|----------------------------------------------------|
A|----------------------------------------------------|
E|----------------------------------------------------|

E|----------------------------------------------------|
B|-0-2-3-3-3-2----3-2-3--2-0-2-3-------3/5-3-2~-------|
G|----------------------------------------------------|
D|----------------------------------------------------|
A|----------------------------------------------------|
E|----------------------------------------------------|

[Primeira Parte]

    D               F#7                 Bm
Ás vezes me pego sozinho pensando em você
    G                 A7                D  A7
Me bate a saudade no peito querendo te ver
    D                 F#7                 Bm
Eu saio entre a multidão de uma rua qualquer
    G                 A7                    D  D4 D 
Querendo encontrar o seu rosto em outra mulher

[Pré-Refrão]

     F#7
Mas nada que eu vejo é igual a você
     Bm                 Bm/A
Não sinto nas outras o mesmo prazer
    E7                                     A4  A7
Tá sempre faltando uma coisa pra me completar
    F#7
Por isso é que eu fico pensando em nós dois
    Bm              Bm/A
Do jeito que era durante e depois
E7                                A7
O cheiro gostoso do amor solto no ar

[Refrão]

D7       G        A7              F#m7
 Cadê você, onde foi que se escondeu
       Bm           Em
Sem você eu não sou eu
        A7       D
Tudo aqui é solidão
D7       G           A7            F#m7
 Cadê você, que não vi por onde andei
       Bm          Em
Sem você eu me tornei
     A7         D
Caçador de corações

[Solo] F#7  Bm  A7  D 
       F#7  Bm  A7  G  A7  D  A7

E|----------------------------------------------------|
B|----------------------------------------------------|
G|-----------3---------------4---------------4/6------|
D|-4-4-4/3-4-------4-4-4/3-4-------4-4-4/3-4----------|
A|----------------------------------------------------|
E|----------------------------------------------------|

E|----------------------------------------------------|
B|-------5-7-7h8-7----7-7-7-8-7-5----5-5-5-7-5-3------|
G|-4-6-7----------------------------------------------|
D|----------------------------------------------------|
A|----------------------------------------------------|
E|----------------------------------------------------|

E|----------------------------------------------------|
B|-0-2-3-3-3-2----3-2-3--2-0-2-3-------3/5-3-2~-------|
G|----------------------------------------------------|
D|----------------------------------------------------|
A|----------------------------------------------------|
E|----------------------------------------------------|

[Primeira Parte]

    D               F#7                 Bm
Ás vezes me pego sozinho pensando em você
    G                 A7                D  A7
Me bate a saudade no peito querendo te ver
    D                 F#7                 Bm
Eu saio entre a multidão de uma rua qualquer
    G                 A7                    D  D4 D 
Querendo encontrar o seu rosto em outra mulher

[Pré-Refrão]

     F#7
Mas nada que eu vejo é igual a você
     Bm                 Bm/A
Não sinto nas outras o mesmo prazer
    E7                                     A4  A7
Tá sempre faltando uma coisa pra me completar
    F#7
Por isso é que eu fico pensando em nós dois
    Bm              Bm/A
Do jeito que era durante e depois
E7                                A7
O cheiro gostoso do amor solto no ar

[Refrão]

D7       G        A7              F#m7
 Cadê você, onde foi que se escondeu
       Bm           Em
Sem você eu não sou eu
        A7       D
Tudo aqui é solidão
D7       G           A7            F#m7
 Cadê você, que não vi por onde andei
       Bm          Em
Por você eu me tornei
     A7         G7   D
Caçador de corações

[Final] D
00:00 / 00:00
Outros vídeos desta música
Repetir
Outros vídeos desta música
Composição de Jefferson Farias / Mário Maranhão
269.080 exibições
    • ½ Tom
    • A
    • Bb
    • B
    • C
    • Db
    • D
    • Eb
    • E
    • F
    • F#
    • G
    • Ab
  • Adicionar à lista

    0 comentários

    Ver todos os comentários

    Entre para oCifra Club PRO

    Tenha acesso a benefícios exclusivos no App e no Site

    • Chega de anúncios

    • Prioridade de compra em lançamentos

    • Mais recursos no app do Afinador

    • Atendimento Prioritário

    • Descontos nos produtos Cifra Club

    • Ajude a produzir mais conteúdo

    00:00 / 00:00

    Cifra Club Pro

    Aproveite o Cifra Club com benefícios exclusivos e sem anúncios
    Cifra Club Pro
    Aproveite o Cifra Club com benefícios exclusivos e sem anúncios
    OK