Cifra Club

Aprenda

Respirar

Gil Monteiro

Cifra: Principal (violão e guitarra)
tom: A
[Intro]

E|-----------------14---------------------------------------------|
B|----17-------------------------14-------------------------------|
G|-------------14---------14--------------------------------------|
D|----------14---------14-----------------------------14----------|
A|-----0-------------------------------14------14------------14---|
E|-----------------------------------------17------17----17-------|

 A4  A  E/G#            Bm7     D
Te a....mo Deus com o meu respirar 
A4   A  E/G#            Bm7     D
Ama.....do meu vivo pra te adorar 
 A4  A  E/G#            Bm7     D
Te a....mo Deus com o meu respirar 
A4   A  E/G#            Bm7     D
Ama.....do meu vivo pra te adorar

A                   E/G#           F#m   D7+
 Você mudou a escuridão em luz pra mim
A                       E/G#            F#m   D
 Me carregou nos braços seus quando eu cai
 A/C#      D                 C#m
Amor tão grande, amor que eu nunca vi 
          D                 Bm      E
Amor tão forte, me abraça até o fim 

 A4  A   E            Bm7     D
Te a....mo Deus com o meu respirar 
A4   A   E            Bm7     D
Ama.....do meu vivo pra te adorar 

[Ponte]

E|----------------------------------------------------------------|
B|----------------------------------------------------------------|
G|------------6----------7---6------------6-----------------------|
D|----7---9---------7-------------7---9-------9---7---6---7-------|
A|------------4----------5---4------------4-----------------------|
E|----5---7---------5-------------5---7-------7---5---4---5-------|

Bm             D             A             E
   Oh  oh  oh    oh   oh  oh   oh  oh  oh  oh  oh  oh  oh 
Bm             D             A             E
   Oh  oh  oh    oh   oh  oh   oh  oh  oh  oh  oh  oh  oh 
Bm             D             A             E
   Oh  oh  oh    oh   oh  oh   oh  oh  oh  oh  oh  oh  oh 
Bm             D             A             E
   Oh  oh  oh    oh   oh  oh   oh  oh  oh  oh  oh  oh  oh  

A                     E/G#            F#m    D
A distância entre que sou e quem devo ser 
A                E/G#            F#m    D
Foi vencida numa cruz sem eu merecer 
 A/C#      D                  C#m
Amor tão grande, amor que eu nunca vi 
          D                 Bm      E
Amor tão forte, me abraça até o fim 

 A4  A    E              Bm7     D
Te a....mo Deus com o meu respirar 
A4   A   E             Bm7     D
Ama.....do meu vivo pra te adorar 
 A4  A    E              Bm7     D
Te a....mo Deus com o meu respirar 
A4   A   E             Bm7     D
Ama.....do meu vivo pra te adorar 
 A4  A   E               Bm7     D
Te a....mo Deus com o meu respirar 
A4   A   E             Bm7     D
Ama.....do meu vivo pra te adorar 

Bm             D             A             E
   Oh  oh  oh    oh   oh  oh   oh  oh  oh  oh  oh  oh  oh 
Bm             D             A             E
   Oh  oh  oh    oh   oh  oh   oh  oh  oh  oh  oh  oh  oh 
Bm             D             A             E
   Oh  oh  oh    oh   oh  oh   oh  oh  oh  oh  oh  oh  oh 
Bm             D             A             E
   Oh  oh  oh    oh   oh  oh   oh  oh  oh  oh  oh  oh  oh
Composição de Gil Monteiro
Colaboração e revisão:
  • Nathan Quencas
  • Wildson Pinto
37.399 exibições
  • Simplificar cifra
    • ½ Tom
    • A
    • Bb
    • B
    • C
    • Db
    • D
    • Eb
    • E
    • F
    • F#
    • G
    • Ab
  • Adicionar à lista

    0 comentários

    Ver todos os comentários
    00:00 / 00:00
    Outros vídeos desta música
    Repetir Qualidade Automático
    Outros vídeos desta música
    00:00 / 00:00
    Automático

    Cifra Club Pro

    Aproveite o Cifra Club com benefícios exclusivos e sem anúncios
    Cifra Club Pro
    Aproveite o Cifra Club com benefícios exclusivos e sem anúncios
    OK