Cifra Club

Parece Castigo

Gilberto e Gilmar

Cifra: Principal (violão e guitarra)
tom: A
Introdução A,F#m,D,Bm,E

solo do começo
Riff 1
E|---9--9--9--7-9--10-12-10-9-
B|---10-10-10-9-10-12-14-12-10
G|----------------------------
D|----------------------------
A|----------------------------
E|----------------------------

Riff 2
E|---4-4-4-2-5-7-8-9----------
B|---5-5-5-4-7-8-9-10---------
G|----------------------------
D|----------------------------
A|----------------------------
E|----------------------------

Riff 3
E|---14-12-14-12-15-12-12
B|---16-13-16-14-17-14-13
G|----------------------------
D|----------------------------
A|----------------------------
E|----------------------------

Riff 4
E|---4-4-4-2-5-7-8-9----------
B|---5-5-5-4-7-8-9-10---------
G|----------------------------
D|----------------------------
A|----------------------------
E|----------------------------

(repete todos o riff)

A                        
Eu não consigo te esquecer 
F#m                        
Meu pensamento só fica em você
D                 Bm
A cada dia chego a delirar
E                          
Se for um sonho me deixe acordar

A                        
Parece até ser um castigo
F#m                         
A solidão vai acabar comigo
D                        Bm
Não posso mais viver sem essa paixão
E
De outra chance pro meu coração

Refrão:
A                             
Aonde estou que não perco a cabeça
F#m                                
Volta pra mim antes que eu enlouqueça
D                       Bm
Aonde estou que vejo o mundo girar
E                       
Será que um dia isso vai se acabar

A,F#m,D,Bm,E (repete todos o riff)

repete a musica
00:00 / 00:00
Outros vídeos desta música
Repetir
Outros vídeos desta música
Composição de Leleu / Luis Venancio
Colaboração e revisão:
  • Fernando Silveira
  • Anderson Borba
  • Paulo Borges
67.148 exibições
    • ½ Tom
    • A
    • Bb
    • B
    • C
    • Db
    • D
    • Eb
    • E
    • F
    • F#
    • G
    • Ab
  • Adicionar à lista

    0 comentários

    Ver todos os comentários

    Conseguiu tocar?

    1 Tocaram 0 Ainda não

    Grave um vídeo tocando Parece Castigo e nos envie!

    Entre para oCifra Club PRO

    Tenha acesso a benefícios exclusivos no App e no Site

    • Chega de anúncios

    • Prioridade de compra em lançamentos

    • Mais recursos no app do Afinador

    • Atendimento Prioritário

    • Descontos nos produtos Cifra Club

    • Ajude a produzir mais conteúdo

    00:00 / 00:00

    Cifra Club Pro

    Aproveite o Cifra Club com benefícios exclusivos e sem anúncios
    Cifra Club Pro
    Aproveite o Cifra Club com benefícios exclusivos e sem anúncios
    OK