Cifra Club

Cane Suga

Glass Animals

Cifra: Principal (violão e guitarra)
Selo Cifra Club: esta cifra foi revisada para atender aos critérios oficiais da nossa Equipe de Qualidade.
tom: Fm
Fm   Eb   Dbmaj7   C 

[Synth Riff]
   Fm                 Eb              Dbmaj7                  C
E|------------------|---------------|---------------|----------------|
B|------------9-----|---------8-----|---------6-----|-----6-------5--|
G|---------10-------|-------8-------|-------5-------|----------------|
D|------10----------|---5-8---------|---3-6---------|---3-------2----|
A|-8-11-------------|-6-------------|-4-------------|-4-------3------|
E|------------------|---------------|---------------|----------------|

   Fm                   Eb              Dbmaj7                  C
E|--------------------|---------------|---------------|----------------|
B|------------9-------|---------8-----|---------6-----|-----6----------|
G|---------10---10----|-------8-------|-------5-------|----------------|
D|------10---------10-|---5-8---------|---3-6---------|---3------------|
A|-8-11---------------|-6-------------|-4-------------|-4-------3------|
E|--------------------|---------------|---------------|----------------|

[Verse 1]
Fm Eb  Dbmaj7   C
Baby, don't go
Fm     Eb   Dbmaj7      C
I'll stop breathing coke
Fm  Eb    Dbmaj7   C
No more bloody nose
Fm Eb    Dbmaj7  C
No more John Does

[Chorus] x4
  Fm
Steam rolled hair
        Eb
Look into the glare and pop it brother
  Dbmaj7
Slick like 007 man
              C
You fly like Kim Jong rockets

[Verse 2]
 Fm     Eb    Dbmaj7 C
Burn through my love
 Fm   Eb   Dbmaj7    C
Just like your drugs
Fm    Eb  Dbmaj7     C
I've had quite enough
Fm  Eb    Dbmaj7   C
Or lack thereof

[Chorus] x2
  Fm
Steam rolled hair
        Eb
Look into the glare and pop it brother
  Dbmaj7   
Slick like 007 man
              C
You fly like Kim Jong rockets

[No chords, only this background synth]
E|---------------|---------------|---------------|---------------|
B|---------9-----|---------10----|---------9-----|---------------|
G|-10------------|-12------------|-10------------|-12------------|
D|---------------|---------------|---------------|---------13----|
A|---------------|---------------|---------------|---------------|
E|---------------|---------------|---------------|---------------|

[Pre-chorus]
  Fm                Eb
Steam rolled hair, Look into the glare and pop it brother  x5

  Fm
Slick like 007 man
Eb                    
You fly like Kim Jong

[Quick synth]
E|-8-------------|
B|----9----------|
G|-------10------|
D|-----------10--|
A|---------------|
E|---------------|

[Chorus] x5
  Fm
Steam rolled hair
        Eb
Look into the glare and pop it brother
  Dbmaj7
Slick like 007 man
              C
You fly like Kim Jong rockets
Outros vídeos desta música
    7 exibições
      • ½ Tom
      • Am
      • Bbm
      • Bm
      • Cm
      • C#m
      • Dm
      • Ebm
      • Em
      • Fm
      • F#m
      • Gm
      • G#m
    • Adicionar à lista

    Afinação da cifra

    Afinador online

      0 comentários

      Ver todos os comentários

      Conseguiu tocar?

      0Tocaram0Ainda não

      Grave um vídeo tocando Cane Suga e nos envie!

      Toque também

      1. Imagem do artista Alt-JBreezeblocks Alt-J
      2. Imagem do artista Electric GuestTroubleman Electric Guest
      3. Imagem do artista JoywaveIts A Trip Joywave
      4. Imagem do artista Max FrostDie Young Max Frost

      Entre para o Cifra Club PRO

      Tenha acesso a benefícios exclusivos no App e no Site

      • Chega de anúncios

      • Badges exclusivas

      • Mais recursos no app do Afinador

      • Atendimento Prioritário

      • Aumente seu limite de lista

      • Ajude a produzir mais conteúdo

      Cifra Club Pro

      Aproveite o Cifra Club com benefícios exclusivos e sem anúncios
      Cifra Club Pro
      Aproveite o Cifra Club com benefícios exclusivos e sem anúncios
      OK