Cifra Club

Helium

Glass Animals

Cifra: Principal (violão e guitarra)
Selo Cifra Club: esta cifra foi revisada para atender aos critérios oficiais da nossa Equipe de Qualidade.
tom: C#m
E|---------------------------------------------------------------------------|
B|9~9-99-99-9-9---4-4-44-44-4-4--5-5-55-55-5-5--7-7-77-77-7-7----------------|
G|9-9-99-99-9-9---4-4-44-44-4-4--6-6-66-66-6-6--8-8-88-88-8-8----------------|
D|---------------------------------------------------------------------------|
A|---------------------------------------------------------------------------|
E|---------------------------------------------------------------------------|



[Verse 1]

E|---------------------------------------------------------------------------|
B|9~9-99-99-9-9---4-4-44-44-4-4--5-5-55-55-5-5--7-7-77-77-7-7----------------|
G|9-9-99-99-9-9---4-4-44-44-4-4--6-6-66-66-6-6--8-8-88-88-8-8----------------|
D|---------------------------------------------------------------------------|
A|---------------------------------------------------------------------------|
E|---------------------------------------------------------------------------|

E|---------------------------------------------------------------------------|
B|9~9-99-99-9-9---10-10-9--9--4-4--5-----------------------------------------|
G|9-9-99-99-9-9---11-11-9--9--4-4--6-----------------------------------------|
D|---------------------------------------------------------------------------|
A|---------------------------------------------------------------------------|
E|---------------------------------------------------------------------------|

E|-----------------------------------------------------------------------------------|
B|--------------10-10-9--9--4-4--5---------------------------------------------------|
G|-4-4--6--6-6--11-11-9--9--4-4--6---------------------------------------------------|
D|-4-4--7--7-7-----------------------------------------------------------------------|
A|-----------------------------------------------------------------------------------|
E|-----------------------------------------------------------------------------------|


[Bridge]

E|---------------------------------------------------------------------------|
B|---5--5--5--5--5----10--10--9--4--4---5------------------------------------|
G|---------------------------------------------------------------------------|
D|---------------------------------------------------------------------------|
A|--4--4--4--4--4----9--9---7---2--2---4-------------------------------------|
E|---------------------------------------------------------------------------|

E|---------------------------------------------------------------------------|
B|-------------------10--10--9--4--4---5-------------------------------------|
G|--5--5---6--6--------------------------------------------------------------|
D|---------------------------------------------------------------------------|
A|------------------9--9---7---2--2---4--------------------------------------|
E|-4--4---5--5---------------------------------------------------------------|

you can also play the full chords for more effect
   C#m               F#m    E    B   C#m
E|---------------------------------------|
B|--5--5--5--5--5---10--10--9--4--4---5--|
G|--6--6--6--6--6---11--11--9--4--4---6--|
D|--6--6--6--6--6---11--11--9--4--4---6--|
A|-4--4--4--4--4----9--9---7---2--2---4--|
E|---------------------------------------|



[Verse 2]



E|-----4-----------------------------------------------------------------------------|
B|----5------7-h9p7------------------------------------------------------------------|
G|---6------8------9-8---------------------------------------------------------------|
D|--6------9-------------------------------------------------------------------------|
A|-4------9--------------------------------------------------------------------------|
E|-------7---------------------------------------------------------------------------|



************************************

| ~  Vibrato
| h  Hammer-on
| p  Pull-off
Outros vídeos desta música
    67 exibições
      • ½ Tom
      • Am
      • Bbm
      • Bm
      • Cm
      • C#m
      • Dm
      • Ebm
      • Em
      • Fm
      • F#m
      • Gm
      • G#m
    • Adicionar à lista

    Afinação da cifra

    Afinador online

      0 comentários

      Ver todos os comentários

      Conseguiu tocar?

      0Tocaram0Ainda não

      Grave um vídeo tocando Helium e nos envie!

      Toque também

      1. Imagem do artista Alt-JBreezeblocks Alt-J
      2. Imagem do artista Electric GuestTroubleman Electric Guest
      3. Imagem do artista JoywaveIts A Trip Joywave
      4. Imagem do artista Max FrostShape Of Things To Come Max Frost

      Entre para o Cifra Club PRO

      Tenha acesso a benefícios exclusivos no App e no Site

      • Chega de anúncios

      • Badges exclusivas

      • Mais recursos no app do Afinador

      • Atendimento Prioritário

      • Aumente seu limite de lista

      • Ajude a produzir mais conteúdo

      Cifra Club Pro

      Aproveite o Cifra Club com benefícios exclusivos e sem anúncios
      Cifra Club Pro
      Aproveite o Cifra Club com benefícios exclusivos e sem anúncios
      Ops (: Contenido disponible sólo en portugués.
      OK