Cifra Club

Your Love

Glass Animals

Cifra: Principal (violão e guitarra)
Selo Cifra Club: esta cifra foi revisada para atender aos critérios oficiais da nossa Equipe de Qualidade.
tom: Gm
D# Cm Gm F   2x


[Verse 1]
D#                  Cm
Mmm, I shut my eyes
                            Gm
You call but I just cut the line
                  F
I know your style
                            D#
I know that you want one more night
              Cm
And I'm backsli-ding
                       Gm
Into this just one more time

E|---------------------------|------------------------|
B|---------------------------|------------------------|
G|---------------------------|------------------------|
D|-5-5-5-5---------5-5-5--5-5|-5-5-5-5---------5-5-5--|
A|---------5-5-5-5-----------|---------5-5-5-5--------|
E|---------------------------|------------------------|



[Pre-Chorus]
D#
Too
              D7
Far from over you
                 Cm
Beams from your M2
                       Gm
Are blowin' through my room
        D#                 D7
And now you lay down in my shoes
                   Cm
You dyed your hair blue
                 Gm
Oh, so much déjà vu

And now


[Chorus]
D#                  Cm
  I can feel your love
                 Gm
Your temporary touch
               Gm
It's a hit and run
            F                 D#
You go back there when you're done
                      Cm
Don't you want some more?
                        Gm
'Cause I can feel your love

E|---------------------------|------------------------|
B|---------------------------|------------------------|
G|---------------------------|------------------------|
D|-5-5-5-5---------5-5-5--5-5|-5-5-5-5---------5-5-5--|
A|---------5-5-5-5-----------|---------5-5-5-5--------|
E|---------------------------|------------------------|


[Verse 2]
D#                     Cm
Mmm, that purple touch
                               Gm
Everyone who sees you falls in love

You eat us up
              F             D#
You live like you're on camera
                 Cm
You slide on top
                           Gm
A moon to all the juice in us

E|---------------------------|------------------------|
B|---------------------------|------------------------|
G|---------------------------|------------------------|
D|-5-5-5-5---------5-5-5--5-5|-5-5-5-5---------5-5-5--|
A|---------5-5-5-5-----------|---------5-5-5-5--------|
E|---------------------------|------------------------|


[Pre-Chorus]
D#
Too
              D7
Far from over you
                 Cm
Beams from your M2
                       Gm
Are blowin' through my room
        D#                 D7
And now you lay down in my shoes
                   Cm
You dyed your hair blue
                 Gm
Oh, so much déjà vu

And now


[Chorus]
D#                  Cm
  I can feel your love
                 Gm
Your temporary touch
               Gm
It's a hit and run
            F                 D#
You go back there when you're done
                      Cm
Don't you want some more?
                        Gm
'Cause I can feel your love

E|---------------------------|------------------------|
B|---------------------------|------------------------|
G|---------------------------|------------------------|
D|-5-5-5-5---------5-5-5--5-5|-5-5-5-5---------5-5-5--|
A|---------5-5-5-5-----------|---------5-5-5-5--------|
E|---------------------------|------------------------|

[Break]
D#* Cm* Gm* F*


[Bridge]
D#
Maybe in time
                Cm
When we're both better at life
             Gm
Daylight can open my eyes
                 F
And you'll still be by my side
D#
But meanwhile
            Cm
I've got my contact high
                Gm
You've got your powdered lies
                F
We've got these summertime nights
D#                        Cm
Night by night, I let you eat me alive
              Gm
I want you to eat me alive
              F
I want you to eat me alive


[Instrumental]
D# Dm Gm F    2x


[Chorus]
D#                  Cm
  I can feel your love
                 Gm
Your temporary touch
               Gm
It's a hit and run
            F                 D#
You go back there when you're done
                  Cm
I can feel your love
                 Gm
Your temporary touch
               Gm
It's a hit and run
            F                 D#
You go back there when you're done
                  Cm
I can feel your love
                 Gm
Your temporary touch
               Gm
It's a hit and run
            F                 D#
You go back there when you're done
                      Cm
Don't you want some more?
                        Gm
'Cause I can feel your love


[Outro]
                F
I can feel your love
                D#
I can feel your love
                Cm
I can feel your love
                Gm
I can feel your love
                Gm
I can feel your love
Outros vídeos desta música
    47 exibições
      • ½ Tom
      • Am
      • Bbm
      • Bm
      • Cm
      • C#m
      • Dm
      • Ebm
      • Em
      • Fm
      • F#m
      • Gm
      • G#m
    • Adicionar à lista

    Afinação da cifra

    Afinador online

      0 comentários

      Ver todos os comentários

      Conseguiu tocar?

      0Tocaram0Ainda não

      Grave um vídeo tocando Your Love e nos envie!

      Toque também

      1. Imagem do artista Alt-JBreezeblocks Alt-J
      2. Imagem do artista Electric GuestTroubleman Electric Guest
      3. Imagem do artista JoywaveObsession Joywave
      4. Imagem do artista Max FrostDie Young Max Frost

      Entre para o Cifra Club PRO

      Tenha acesso a benefícios exclusivos no App e no Site

      • Chega de anúncios

      • Badges exclusivas

      • Mais recursos no app do Afinador

      • Atendimento Prioritário

      • Aumente seu limite de lista

      • Ajude a produzir mais conteúdo

      Cifra Club Pro

      Aproveite o Cifra Club com benefícios exclusivos e sem anúncios
      Cifra Club Pro
      Aproveite o Cifra Club com benefícios exclusivos e sem anúncios
      Ops (: Contenido disponible sólo en portugués.
      OK