Cifra Club

Aprenda

Creep

Glee

Cifra: Principal (violão e guitarra)
tom: C
Intro: C  E  F  Fm

(dedilhado)
    C
E|-------------------------------------------
B|-------------------------------------------
G|------9-------9-------10------9-------9----
D|--------10------10--------------10------10-
A|---10------10------10----10--------10------
E|-8--------------------------8--------------

    E
E|-------------------------------------------------
B|-------------------------------------------------
G|-------13-------13-------14-------13-------13----
D|----------14-------14----------------14-------14-
A|----14-------14-------14----14----------14-------
E|-12----------------------------12----------------

    F
E|------------------------------------------------
B|------------------------------------------------
G|-------14-------14-------15------14-------14----
D|----------15-------15---------------15-------15-
A|----15-------15-------15---15----------15-------
E|-13---------------------------13----------------

    Fm
E|-------------------------------------------------
B|-------------------------------------------------
G|-------13-------13-------13-------13-------13----
D|----------15-------15-------15-------15-------15-
A|----15-------15-------15-------15-------15-------
E|-13----------------------------------------------

                    C
When you were here before,
                         E
Couldn't look you in the eye,
                    F
You're just like an angel
                   Fm
Your skin makes me cry,
                 C
You float like a feather,
               E
In a beautiful world.
                 F
And I wish I was special,
               Fm
You're so fucking special.

           C                E
But I'm a creep, I'm a weird.
                        F
What the hell am I doing here?
              Fm
I don't belong here.

                   C
I don't care if it hurts
                  E
I want to have control,
                 F
I want a perfect body,
                 Fm
I want a perfect soul,
              C
I want you to notice,
             E
When I'm not around,
              F
You're so fucking special,
            Fm
I wish I was special.

     C                E
But I'm a creep, I'm a weird.
                        F
What the hell am I doing here?
              Fm
I don't belong here.

C                  E
She's running out the door,
F
She's running out...
Fm                       ( C E F Fm )
run run run run runnnnn....

                   C
Whatever makes you happy,
             E
Whatever you want,
              F
You're so fucking special,
            Fm
I wish I was special...

C                E
But I'm a creep, I'm a weird.
                        F
What the hell am I doing here?
              Fm
I don't belong here.

          C
I don't belong here.
Composição de Radiohead
Colaboração e revisão:
  • Aniele Castro
  • Thais
16.265 exibições
    • ½ Tom
    • A
    • Bb
    • B
    • C
    • Db
    • D
    • Eb
    • E
    • F
    • F#
    • G
    • Ab
  • Adicionar à lista

    0 comentários

    Ver todos os comentários

    Conseguiu tocar?

    4 Tocaram 3 Ainda não

    Grave um vídeo tocando Creep e nos envie!

    00:00 / 00:00
    outros vídeos desta música
    repetir qualidade Automático
    Outros vídeos desta música
    00:00 / 00:00
    Automático

    Cifra Club Pro

    Aproveite o Cifra Club com benefícios exclusivos e sem anúncios
    Cifra Club Pro
    Aproveite o Cifra Club com benefícios exclusivos e sem anúncios
    OK