Cifra Club

Aprenda

Anemia

Gloria

Cifra: Principal (violão e guitarra)
Tom: B
Afinação DROP B, da mizona pra mizinha (B Gb B E Ab Db)

INTRO

4x
------------------------------------------------------------------------------------------
------------------------------------------------------------------------------------------
------------------------------------------------------------------------------------------
-0-0-3-0-2-0--------------------0-0-3-0-2-0-----------------------------------------------
-------------0-0-3-0-5-0-3------------------3h5p3-5/7-5-(3)-------------------------------
---------------------------0-(3)----------------------------------------------------------

------------------------------------------------------------------------------------------
------------------------------------------------------------------------------------------
------------------------------------------------------------------------------------------
-0-0-3-0-2-0--------------------0-0-3-0-2-0-----------------------------------------------
-------------0-0-3-0-5-0-3------------------5-3-5-6-5-3-0---------------------------------
---------------------------0-(3)------------5-3-5-6-5-3-0---------------------------------

VERSO

2x
------------------------------------------------------------------------------------------------------------------
------------------------------------------------------------------------------------------------------------------
------------------------------------------------------------------------------------------------------------------
-------------2-0-0-2-0-0-2h3--------------2-0-0-2-0-0------------------2-0-0-2-0-0-2h3-555-777-999--10-10-10------
-0-000000000-----------------0-0000000000-------------(3)-0-0000000000-----------------333-555-777--8--8--8-------
-0-000000000-----------------0-0000000000-----------------0-0000000000--------------------------------------------

REFRÃO

2x
------------------------------------------------------------------------------------------
------------------------------------------------------------------------------------------
------------------------------------------------------------------------------------------
------5555------3333----------------------------------------------------------------------
-0000-3333-7777-1111----------------------------------------------------------------------
-0000------7777---------------------------------------------------------------------------

VERSO

2x
------------------------------------------------------------------------------------------------------------------
------------------------------------------------------------------------------------------------------------------
------------------------------------------------------------------------------------------------------------------
-------------2-0-0-2-0-0-2h3--------------2-0-0-2-0-0------------------2-0-0-2-0-0-2h3-555-777-999--10-10-10------
-0-000000000-----------------0-0000000000-------------(3)-0-0000000000-----------------333-555-777--8--8--8-------
-0-000000000-----------------0-0000000000-----------------0-0000000000--------------------------------------------

REFRÃO

4x
------------------------------------------------------------------------------------------
------------------------------------------------------------------------------------------
------------------------------------------------------------------------------------------
------5555------3333----------------------------------------------------------------------
-0000-3333-7777-1111----------------------------------------------------------------------
-0000------7777---------------------------------------------------------------------------

PÓS-REFRÃO

------------------------------------------------------------------------------------------
------------------------------------------------------------------------------------------
------------------------------------------------------------------------------------------
---------555------------------------------------------------------------------------------
-00-0000-333-00-0000-3333-----------------------------------------------------------------
-00-0000-----00-0000-3333-----------------------------------------------------------------

-----------------------------------------------------------------------------------------------
-----------------------------------------------------------------------------------------------
-----------------------------------------------------------------------------------------------
---------555-----------------------------------------------------------------------------------
-00-0000-333-00-0000---------------------------------------------------------------------------
-00-0000-----00-0000-3-------------------------------------------------------------------------

REFRÃO 8x

PÓS REFRÃo
Composição de Elliot / Fil / Johnny / Mi
Colaboração e revisão:
  • Rafael Checkley
53.411 exibições
    • ½ Tom
    • A
    • Bb
    • B
    • C
    • Db
    • D
    • Eb
    • E
    • F
    • F#
    • G
    • Ab
  • Adicionar à lista

    0 comentários

    Mostrar mais comentários

    Conseguiu tocar?

    4 Tocaram 0 Ainda não

    Grave um vídeo tocando Anemia e mande pra gente!

    00:00 / 00:00
    outros vídeos desta música
    repetir qualidade Automático
    Outros vídeos desta música
    00:00 / 00:00
    Automático

    Cifra Club Pro

    Aproveite o Cifra Club com benefícios exclusivos e sem anúncios
    7 dias grátis
    Cifra Club Pro
    Aproveite o Cifra Club com benefícios exclusivos e sem anúncios
    7 dias grátis
    OK