Cifra Club

Pétalas

Gloria

Cifra: Principal
exibições 56.012
Tom: C
Intro: Am7 G11 F7M/C (2x)

Riff Intro:


  Am7                       G11
E|------5-----------      E|--------5-------
B|--2h3---3-2-------      B|--2h3-----5----
G|----------------        G|--0------------
D|-----------------       D|--0-------------
A|--2---------------      A|--2-------------
E|------------------      E|---------------


  Am7                       G11
E|------7-----------      E|--------5-------
B|--2h3-------------      B|--2h3-----3-2---
G|----------------        G|--0------------
D|-----------------       D|--0-------------
A|--2---------------      A|--2-------------
E|------------------      E|---------------


  Am7                       G11
E|------5-----------      E|--------5--0-7----
B|--2h3---5---------      B|--2h3-----5-----
G|----------------        G|--0------------
D|-----------------       D|--0-------------
A|--2---------------      A|--2-------------
E|------------------      E|---------------


  F7M/C
E|--------------------
B|--1--1-1-1-1--1-----
G|--2--2-2-2-2--2-----
D|--3--3-3-3-3--3-----
A|--3--3-3-3-3--3-----
E|--------------------


       Am
Nunca mais
       A5(9)           Am      A5(9)
A solidão se faz presente aqui
      F7M/C
Nunca mais
       C11         F7M/C      C11
O caos se fez, e a luz se foi
       Am
Nunca mais
      A5(9)      Am
A saudade arde e me afoga
      F7M/C
Nunca mais
       C11         F7M/C   C11
Se fez assim, esse é o fim
      G5(9)  F7M/C
Nunca mais

Am         G5(9)    F7M/C
Lembrar de mim toda vez que respirar
Am         G5(9)                F7M/C
Lembrar de mim se eu nunca mais voltar

Am       A5(9)
Entre as dores do mundo
Am   A5(9)
Me perco pra achar você
F7M/C    C11
Volto cada segundo
F7M/C
Não consigo entender
Am               A5(9)
Será que eu posso mudar
Am               A5(9)
Meu coração Sem sentir a vida escorrer
F7M/C     C11     F7M/C  C11
Em minhas mãos??

Am         G5(9)    F7M/C
Lembrar de mim toda vez que respirar    (2x)
Am         G5(9)                F7M/C
Lembrar de mim se eu nunca mais voltar

F7M/C
Pétalas caem em mim
Am
Tiram de mim
  G5(9)                     F7M/C
A angustia que eu sinto sem você     (2x)
                  A5(9)   G6
Eu não existo sem você

Am         G5(9)    F7M/C
Lembrar de mim toda vez que respirar    (2x)
Am         G5(9)                F7M/C
Lembrar de mim se eu nunca mais voltar
Acordes para:
    Composição: GloriaColaboração e revisão:

    0 comentários

      mostrar mais comentários

      Conseguiu tocar?

      20tocaram1ainda não

      Grave um vídeo tocando Pétalas e mande pra gente!

      00:00 / 00:00
      outros vídeos desta música
      repetirqualidadeautomática
      Outro vídeos desta música
        00:00 / 00:00
        automática
        OK