Cifra Club

Vacation

The Go-Go's

Cifra: Principal (violão e guitarra)
Selo Cifra Club: esta cifra foi revisada para atender aos critérios oficiais da nossa Equipe de Qualidade.
tom: E
[Intro]
   
   E5          B5          Db5        A5  B5  E                                       
E|-4---5---4-------4---5---4------4--------------|
B|-5---5---5---7---5---5---5------5---5---7---9--|
G|-------------9----------------------6---8---9--|
D|--------------------------------------------9--|
A|--------------------------------------------7--|
E|-----------------------------------------------|

( E )

E5           A5                  B5
Can't seem to get my mind off of you
E5           A5                  B5
Back here at home there's nothin' to do
A5           B5
Now that I'm away
A5           B5
I wish I'd stayed
A5            B5
Tomorrow's a day of mine
A5            B5
that you won't be in

E5                A5             B5
When you looked at me I should've run
E5            A5              B5
But I thought it was just for fun
A5           B5
I see I was wrong
A5              B5
And I'm not so strong
A5            B5
I should've known all along
     A5   G#5   F#5
that time would tell

B5          C#5
A week without you
    B5        A5
Thought I'd forget
B5           C#5
Two weeks without you and I
A5                   B5
Still haven't gotten over you yet

E5        B5
Vacation, all I ever wanted
A5        B5
Vacation, had to get away
E5        B5                 C#5   A5  B5
Vacation, meant to be spent alone

E5        B5
Vacation, all I ever wanted
A5        B5
Vacation, had to get away
E5        B5                 C#5   A5  B5
Vacation, meant to be spent alone

  ( E )                                 
E|--------------------------------|
B|--9--9-x-x-9-x-x-9-x-x-9-x-x-9--|
G|--9--9-x-x-9-x-x-9-x-x-9-x-x-9--| (2x)
D|--9--9-9-9-9-9-9-9-9-9-9-9-9-9--|
A|--7--7-7-7-7-7-7-7-7-7-7-7-7-7--|
E|--------------------------------|

  ( E5  B5  C#5  A5  B5 )
  ( E5  B5  C#5  A5  B5 )

E|-4---5---4-------4---5---4------4-------------|
B|-5---5---5---7---5---5---5------5---5---7-----|
G|-------------9----------------------6---8-----| (2x)
D|----------------------------------------------|
A|----------------------------------------------|
E|----------------------------------------------|



B5          C#5
A week without you
    B5        A5
Thought I'd forget
B5           C#5
Two weeks without you and I
A5                   B5
Still haven't gotten over you yet

E5        B5
Vacation, all I ever wanted
A5        B5
Vacation, had to get away
E5        B5                 C#5   A5  B5
Vacation, meant to be spent alone

E5        B5
Vacation, all I ever wanted
A5        B5
Vacation, had to get away
E5        B5                 C#5   A5  B5
Vacation, meant to be spent alone

E5        B5
Vacation, all I ever wanted
A5        B5
Vacation, had to get away
E5        B5                 C#5   A5  B5
Vacation, meant to be spent alone

( C#5  A5  B5  E )
Outros vídeos desta música
214 exibições
    • ½ Tom
    • A
    • Bb
    • B
    • C
    • Db
    • D
    • Eb
    • E
    • F
    • F#
    • G
    • Ab
  • Adicionar à lista

Afinação da cifra

Afinador online

    0 comentários

    Ver todos os comentários

    Entre para o Cifra Club PRO

    Tenha acesso a benefícios exclusivos no App e no Site

    • Chega de anúncios

    • Mais recursos no app do Afinador

    • Atendimento Prioritário

    • Aumente seu limite de lista

    • Ajude a produzir mais conteúdo

    Cifra Club Pro

    Aproveite o Cifra Club com benefícios exclusivos e sem anúncios
    Cifra Club Pro
    Aproveite o Cifra Club com benefícios exclusivos e sem anúncios
    OK