Cifra Club

Fall Away

Godhead

Cifra: Principal (violão e guitarra)
Selo Cifra Club: esta cifra foi revisada para atender aos critérios oficiais da nossa Equipe de Qualidade.
tom: Bm
RIFF A
E|-----------------------------------------------------|
B|-----------------------------------------------------|
G|-----------------------------------------------------|
D|-----------------------------------------------------|
A|----------------------10-12----------------------5-4-|
E|-5h7-77-5h7-7-5h7-777-8--10-5h7-77-5h7-7-5h7-777-3-2-|
      ..     .     ...           ..     .     ...

(22sec - 32sec) Gtr2 plays RIFF B 2times

RIFF B
E|----------------------------------------|
B|----------------------------------------|
|-9/11-11-11-9/11-11-9/11-11-11-11-12-14-|
E|-x/x--x--x--x/x--x--x/x--x--x--x--x--x--|
B|-7/9--9--9--7/9--9--7/9--9--9--9--10-12-|
G|----------------------------------------|
       .  .       .       .  .  .

E|--------------------------------------|
B|--------------------------------------|
-9/11-11-11-9/11-11-9/11-11-11-11-7-6-|
E|-x/x--x--x--x/x--x--x/x--x--x--x--x-x-|
B|-7/9--9--9--7/9--9--7/9--9--9--9--5-4-|
G|--------------------------------------|
      .  .       .       .  .  .

(33sec - 54sec) Gtr2 plays RIFF C 2times

RIFF C
E|------------------------------------|
B|------------------------------------|
G|------------------------------------|
D|-4----5----7----9----11----11/12\11-|
A|-x----x----x----x----x-----x-/x-\x--|
E|-2----3----5----7----9-----9-/10\9--|


(55sec - 1min 4sec) Gtrs play RIFF D 2times

RIFF D
E|-----------------------------------------------|
B|-----------------------------------------------|
G|-----------------------------------------------|
D|-----------------------------------------------|
|-5-5-5-5-5-5-5-5-5-5-5-5-5-5/4-7-7-7-7-7-7-7-7-|
|-3-3-3-3-3-3-3-3-3-3-3-3-3-3/6-5-5-5-5-5-5-5-5-|

(1min 5sec - 1min 10sec) Gtr1 plays RIFF A 1time

(1min 11sec - 1min 20sec) Gtrs play RIFF E 1time

RIFF E
E|-----------------------------------------------|
B|-----------------------------------------------|
G|-----------------------------------------------|
D|-----------------------------------------------|
|-7---9--4-5---7---9--4-5---7---9--4-5---7---9--|
|-5---7--2-3---5---7--2-3---5---7--2-3---5---7--|

(1min 22sec - 1min 32sec) Gtr1 plays RIFF A 2times

(1min 33sec - 1min 54sec) Gtr2 plays RIFF C 2times

(1min 55sec - 2min 15sec) Gtrs play RIFF D 4times

(2min 16sec - 2min 21sec) Gtr1 plays RIFF A 1time

(2min 22sec - 2min 32sec) Gtrs play RIFF E 1time

(2min 32sec - 2min 54sec) Gtr2 plays RIFF F 1time

RIFF F (not 100% sounds like crybaby/distortion)
E|---------------------------------------------------|
B|--------------------------------16~~17~~--19~~tr| em-|
G|------------------------16~~17~~-------------------|
D|---------------------------------------------------|
A|-12~~~\11~~~\10~~~~\9~~~---------------------------|
E|--------------------^------------------------------|
                     get feedback on this note

E|---------------------------------------------|
B|-17b1/2--------------------------------------|
G|-17b1/2--------------------------------------|
D|-^^------------------------------------------|
A|---b| end strings gradually and simultaneously-|
E|---------------------------------------------|
00:00 / 00:00
Outros vídeos desta música
Repetir
Outros vídeos desta música
    • ½ Tom
    • Am
    • Bbm
    • Bm
    • Cm
    • C#m
    • Dm
    • Ebm
    • Em
    • Fm
    • F#m
    • Gm
    • G#m
  • Adicionar à lista

Afinação da cifra

Afinador online

    0 comentários

    Ver todos os comentários

    Entre para o Cifra Club PRO

    Tenha acesso a benefícios exclusivos no App e no Site

    • Chega de anúncios

    • Mais recursos no app do Afinador

    • Atendimento Prioritário

    • Aumente seu limite de lista

    • Ajude a produzir mais conteúdo

    00:00 / 00:00

    Cifra Club Pro

    Aproveite o Cifra Club com benefícios exclusivos e sem anúncios
    Cifra Club Pro
    Aproveite o Cifra Club com benefícios exclusivos e sem anúncios
    OK