Cifra Club

Running Blind

Godsmack

Cifra: Principal (violão e guitarra)
tom: E
Introdução (Eb9 C#9 B9)  Riff1 [Tocar Riff junto com a sequência (Eb9 C#9 B9)]

(Eb9 C#9 B9)

Can't find the answers
I've been crawling on my knees
Looking for anything
To keep me from drowning
Promises have been turned to lies
Can't even be honest inside
Now I'm running backward
                             G# A#
Watching my life wave me goodbye

           G# A#
Running blind
               G# A#
I'm running blind

F#                      E
Somebody help me see I'm running blind


(Eb9 C#9 B9) 4X  [Tocar Riff1 simultaneamente com a sequência (Eb9 C#9 B9)]


(Eb9 C#9 B9)

Searching for nothing
Wondering if I'll change
I'm trying everything
But everything still stays the same
I thought if I showed you I could fly
Wouldn't need anyone by my side
Now I'm running backward
                                G# A#
With broken wings I know I'll die
           G# A#
Running blind
            G# A#
I'm running blind
F#                     E
Somebody help me see I'm running blind

(Eb9 C#9 B9) 4X [Tocar Riff2 simultaneamente com a sequência (Eb9 C#9 B9)]

Running blind
Running blind
Running blind



(Solo) [A base que acompanha o solo é (Eb9 C#9 B9) 4X, depois (G# A#) 3X e por último (F# E)]


Depois do solo

(Eb9 C#9 B9) 4X [Tocar Riff1 simultaneamente com a sequência (Eb9 C#9 B9)]


(Eb9 C#9 B9)

I can't find the answers
I've been crawling on my knees
Looking for anything
To keep me from drowning

(Eb9 C#9 B9)  
             
               [Riff2] O Riff2 sempre deve ser tocado simultaneamente com a sequência (Eb9 C#9 B9)
I'm running blind
           [Riff2]
Running blind
           [Riff2]
Running blind
           [Riff2]
Running blind
           [Riff2]
Running blind
           [Riff2]
Running blind
           [Riff2]
Running blind
           [Riff2]
Running blind
   
           Eb9
Running blind




Riff1 
e|--------------------------------------------------------------------
B|------2---4-------2---------2---------2----4---------2--------------
G|---3----------3--------3---------3--------------3----------3--------
D|--------------------------------------------------------------------
A|--------------------------------------------------------------------
E|--------------------------------------------------------------------

Riff2 
e|------------
B|------2---4-
G|---3--------
D|------------
A|------------
E|------------

Solo 
e|-----------------------------------------------------------------------------------------------
B|--2--2/4--4--4/6--6--6/7--7--6--4-----2--4--4--4--4--4/6--6--6/7--7--6--4----2--4--------------
G|-----------------------------------3---------------------------------------3-------------------
D|-----------------------------------------------------------------------------------------------
A|-----------------------------------------------------------------------------------------------
E|-----------------------------------------------------------------------------------------------

-------------------------------------------------------------------------------------------------
11--11--7--7/9--9--9/6--6--6/7--7--7/4--4/6--6--6--4/2--2--2/4--4--2--9--9--9--9--9--8/6--6/4--4-
-------------------------------------------------------------------------------------------------
-------------------------------------------------------------------------------------------------
-------------------------------------------------------------------------------------------------
-------------------------------------------------------------------------------------------------

-------------------------------------------------------------------------------------------------
9--9--9--9/11--11/9--9/8--8/6--6/9--9--9--9--9--9--8/6--6/4--4--7--7--7--7/9--9--9--9--9--9/11-11
-------------------------------------------------------------------------------------------------
-------------------------------------------------------------------------------------------------
-------------------------------------------------------------------------------------------------
-------------------------------------------------------------------------------------------------

Acordes:

G#=355433
A#=688766
00:00 / 00:00
Outros vídeos desta música
Repetir
Outros vídeos desta música
Composição de Sully Erna
Colaboração e revisão:
  • Athos Oliveira
12.473 exibições
    • ½ Tom
    • A
    • Bb
    • B
    • C
    • Db
    • D
    • Eb
    • E
    • F
    • F#
    • G
    • Ab
  • Adicionar à lista

    0 comentários

    Ver todos os comentários

    Entre para oCifra Club PRO

    Tenha acesso a benefícios exclusivos no App e no Site

    • Chega de anúncios

    • Prioridade de compra em lançamentos

    • Mais recursos no app do Afinador

    • Atendimento Prioritário

    • Descontos nos produtos Cifra Club

    • Ajude a produzir mais conteúdo

    00:00 / 00:00

    Cifra Club Pro

    Aproveite o Cifra Club com benefícios exclusivos e sem anúncios
    Cifra Club Pro
    Aproveite o Cifra Club com benefícios exclusivos e sem anúncios
    OK