Cifra Club

Aprenda

99 Red Ballons

Goldfinger

Cifra: Principal (violão e guitarra)
tom: E
Goldfinger - 99 red baloons

Intro: Guitarra Limpa
    E   F#m  A   B
|---0---2---5---7-----------------------------------------|
|---0---2---5---7-----------------------------------------|
|---1---2---6---8-----------------------------------------|
|---2---4---7---9-----------------------------------------|
|---2---4---7---9-----------------------------------------|
|---0---2---5---7-----------------------------------------|

Verso: 1
Em F# A B (Palm Muted)
E|---------------------------------------------------|
B|---------------------------------------------------|
G|---------------------------------------------------|
D|--2--4--7--9--2--4--7--9---------------------------|
A|--2--4--7--9--2--4--7--9---------------------------|
e|--0--2--5--7--0--2--5--7---------------------------|

You and I in a little toy shop
buy a bag of balloons with the money we've got
Set them free at the break of dawn
'Til one by one, they were gone
    E   F#  A   B    E   F#  A   B      
|---0---2---5---7----0---2---5---7-------------------------------------|
|---0---2---5---7----0---2---5---7-------------------------------------|
|---1---2---6---8----1---2---6---8-------------------------------------|
|---2---4---7---9----2---4---7---9-------------------------------------|
|---2---4---7---9----2---4---7---9-------------------------------------|
|---0---2---5---7----0---2---5---7-------------------------------------|
Back at base, bugs in the software
Flash the message, "Something's out there"
Floating in the summer sky
99 red balloons go by.

Bridge: faça isso 5 vezes, ouça a musica para acertar o tempo. 
E|--------------------------------|
B|--------------------------------|
G|--9--9-9---9--9-9---------------|
D|--9--9-9---9--9-9---------------|
A|--7--7-7---7--7-7---------------|
e|--------------------------------|

Interlude 1:
                                                                                                                                      ----------|
e|--------------------------------------------|          |
b|--------------------------------------------|          |
g|--------------------------------------------|          |
d|-2-2----2-----4h6p4-2---2-2---2-------------|          |
a|------4----4----------4-----4---4---2-2-2h4-|          |
e|--------------------------------------------|          |
                                                       |
e|-------------------------------------------------|     |  2x
b|-------------------------------------------------|     |
g|-------------------------------------------------|     |
d|-2-2----2-----4h6p4-2---2-2---2-----2-----2------|     |
a|------4----4----------4-----4---4---2-----2------|     |
e|------------------------------------0-0-0-0-0-0--|     |
                                                 --------|

Verse 2: toque cada nota 8x.
E|---------------------------------------------------|
B|---------------------------------------------------|
G|---------------------------------------------------|
D|--2--4--7--9--2--4--7--9---------------------------|   2x
A|--2--4--7--9--2--4--7--9---------------------------|
e|--0--2--5--7--0--2--5--7---------------------------|

ninety nine red balloons 
floating in the summer sky
Panic bells, it's red alert
There's something here from somewhere else
The war machine springs to life
Opens up one eager eye
Focusing it on the sky
As 99 red balloons go by.

Solo1:
E|-2-4-0-4-2-0------4-2-0-0---0----0-2---------------|
B|--------------2-----------2----2-------------------|
G|---------------------------------------------------|
D|---------------------------------------------------|
A|---------------------------------------------------|
E|---------------------------------------------------|

E|-2-4-0-4-2-0------4-2-0-0---7-4-2-4----------------|
B|--------------2-----------2------------------------|
G|---------------------------------------------------|
D|---------------------------------------------------|
A|---------------------------------------------------|
E|---------------------------------------------------|


Verse 3: toque cada nota 8x (palm-muted)
)
E|---------------------------------------------------|
B|---------------------------------------------------|
G|---------------------------------------------------|
D|--2--4--7--9--2--4--7--9---------------------------| 2x
A|--2--4--7--9--2--4--7--9---------------------------|
e|--0--2--5--7--0--2--5--7---------------------------|

99 Decision Street, 99 ministers meet
To worry, worry, super-scurry
Call out the troops now in a hurry

(porrada nas cordas)

This is what we've waited for
This is it boys, this is war
The president is on the line
As 99 red balloons go by.

Bridge: faça isso 5x.

E|--------------------------------|
B|--------------------------------|
G|--9--9-9---9--9-9---------------|
D|--9--9-9---9--9-9---------------|
A|--7--7-7---7--7-7---------------|
e|--------------------------------|

Interlude two:
                                                                                                                                      ----------|
e|--------------------------------------------|          |
b|--------------------------------------------|          |
g|--------------------------------------------|          |
d|-2-2----2-----4h6p4-2---2-2---2-------------|          |
a|------4----4----------4-----4---4---2-2-2h4-|          |
e|--------------------------------------------|          |
                                                       |
e|-------------------------------------------------|     |  2x
b|-------------------------------------------------|     |
g|-------------------------------------------------|     |
d|-2-2----2-----4h6p4-2---2-2---2-----2-----2------|     |
a|------4----4----------4-----4---4---2-----2------|     |
e|------------------------------------0-0-0-0-0-0--|     |
                                                 --------|

Verse 4: bata em cada nota 8x.
E|---------------------------------------------------|
B|---------------------------------------------------|
G|---------------------------------------------------|
D|--2--4--7--9--2--4--7--9---------------------------|   2x
A|--2--4--7--9--2--4--7--9---------------------------|
e|--0--2--5--7--0--2--5--7---------------------------|

99 Kriegsminister
Streichholz und Benzinkanister
Hielten sich fuer schlaue Leute
Witterten schon fette Beute
Riefen: Krieg und wollten Macht
Mann, wer haette das gedacht
Dass es einmal soweit kommt
Wegen 99 Luftballons

Solo:
E|-2-4-0-4-2-0------4-2-0-0---0----0-2---------------|
B|--------------2-----------2----2-------------------|
G|---------------------------------------------------|
D|---------------------------------------------------|
A|---------------------------------------------------|
E|---------------------------------------------------|

E|-2-4-0-4-2-0------4-2-0-0---7-4-2-4----------------|
B|--------------2-----------2------------------------|
G|---------------------------------------------------|
D|---------------------------------------------------|
A|---------------------------------------------------|
E|---------------------------------------------------|

solo finaL:

E|--2-2-0-2-2-0-2-2-0-2-2-0-2-2------------------|
B|-----------------------------------------------|
G|-----------------------------------------------|
D|-----------------------------------------------|
A|-----------------------------------------------|
e|-----------------------------------------------|

E|7-7-4-7-7-4-4-4-7-7-4-7-7-4-4-4-7-4-7-7-4-7-7-4-4-4-------------------|
B|----------------------------------------------------------------------|
G|-----------------------------------------------------4-4-4-6-8-9------|
D|-----------------------------------------------------4-4-4-6-8-9------|
A|-----------------------------------------------------2-2-2-4-6-7------|
e|----------------------------------------------------------------------|

    E   F#  A   B    E   F#  A   B      
|---0---2---5---7----0---2---5---7-------------------------------------|
|---0---2---5---7----0---2---5---7-------------------------------------|
|---1---2---6---8----1---2---6---8-------------------------------------| 2x
|---2---4---7---9----2---4---7---9-------------------------------------|
|---2---4---7---9----2---4---7---9-------------------------------------|
|---0---2---5---7----0---2---5---7-------------------------------------|

99 dreams I have had
In every one a red balloon
It's all over and I'm standin' pretty
In the dust that was a city
If I could find a souvenier
Just to prove the world was here...
And here it is, a red balloon
I think of you and let it go.
Colaboração e revisão:
  • Sidney Jr
23.380 exibições
    • ½ Tom
    • A
    • Bb
    • B
    • C
    • Db
    • D
    • Eb
    • E
    • F
    • F#
    • G
    • Ab
  • Adicionar à lista

    0 comentários

    Ver todos os comentários

    Conseguiu tocar?

    0 Tocaram 0 Ainda não

    Grave um vídeo tocando 99 Red Ballons e nos envie!

    00:00 / 00:00
    outros vídeos desta música
    repetir qualidade Automático
    Outros vídeos desta música
    00:00 / 00:00
    Automático

    Cifra Club Pro

    Aproveite o Cifra Club com benefícios exclusivos e sem anúncios
    Cifra Club Pro
    Aproveite o Cifra Club com benefícios exclusivos e sem anúncios
    OK