Cifra Club

Aprenda

Anxiety

Goldfinger

Cifra: Principal (violão e guitarra)
Já pensou em usar uma coleção de roupas do Cifra Club? Responda as perguntas abaixo e nos ajude nessa missão! →
tom: B
 Intro:
e|------------------------------------------------|
B|------------------------------------------------|
G|--4--------4---------------9999x----------------|
D|--4--------4---4---6-------9999x----------------|
A|-22--------2---4---6-------7777x----------------|
E|---------------2---4----------------------------|
  
  Verse: Play 2x (So you been thinkin about it......)
e|------------------------------------------------|
B|------------------------------------------------|
G|-4x4-444------------------------------9x9-999---|
D|-4x4-444-----4x4-444-----6x6-666------9x9-999---|
A|-2x2-222-----4x4-444-----6x6-666------7x7-777---|
E|-------------2x2-222-----4x4-444----------------|
 
  Pre chorus: Play 1x (So you analyze it.....)
e|---------------0-0-0-0-0-0------------------------------
B|---------------2-2-2-2-2-2------------------------------
G|4-4-4-4-4-4-4--2-2-2-2-2-2--1-1-1-1-1-1--4-4-4-4-4-4-x--
D|4-4-4-4-4-4-4--2-2-2-2-2-2--2-2-2-2-2-2--4-4-4-4-4-4-x--
A|2-2-2-2-2-2-2--0-0-0-0-0-0--2-2-2-2-2-2--2-2-2-2-2-2-x--
E|-----------------------------------------0-0-0-0-0-0----

e|0-0-0-0-0-0-----------------------2-2-2-2-222-|
B|2-2-2-2-2-2-----------------------2-2-2-2-222-|
G|2-2-2-2-2-2------1-1-1-1-1-1------3-3-3-3-333-|
D|2-2-2-2-2-2------2-2-2-2-2-2------4-4-4-4-444-|
A|0-0-0-0-0-0------2-2-2-2-2-2------4-4-4-4-444-|
E|-----------------0-0-0-0-0-0------2-2-2-2-222-|

  Chorus: Play 2x (It's not your time.......)
e|-------------------------------------------|
B|-------------------------------------------|
G|444444444-------------------------999999---|
D|444444444--444444444--6666666666--999999---|
A|222222222--444444444--6666666666--777777---|
E|-----------222222222--4444444444-----------|

  Riff after first chorus: 2x, then back to verse, then chorus
e|-------------------------------------------|
B|-55555555--4444444--754--44-44-------------|
G|-xxxxxxxx--xxxxxxx--xxx--44-44-------------|
D|-22222222--1111111--421--22 22-------------|
A|-------------------------------------------|
E|-------------------------------------------|

  Solo after second chorus: (guitar2 plays pre-chorus)       (guitar2 rests)   
e|-------------------------------------------------------------------------|
B|------------------------------------------------------------4------------|
G|-1--3--4--1---1--1--4--3--3--4--4--4--4/6--6---4----6---6664-------------|
D|------------4---4----------4------2-----------------------4---4--6664----|
A|---------------------------------------------------------------------4442|
E|-------------------------------------------------------------------------|
  
Solo cont. Play 2x  (guitar2 plays chorus 1x, then band repeats chorus
4x)
e|-------------------------------------------------------------------------|
B|--------------------12-12-12-11-----11-12-11-12-11------12---------------|
G|11-11-11----------------------------------------------------11-----------|
D|-------------------------------------------------------------------------|
A|-------------------------------------------------------------------------|
E|-------------------------------------------------------------------------|
Composição de John Feldmann
Colaboração e revisão:
  • James Johny
230 exibições
    • ½ Tom
    • A
    • Bb
    • B
    • C
    • Db
    • D
    • Eb
    • E
    • F
    • F#
    • G
    • Ab
  • Adicionar à lista

    0 comentários

    Ver todos os comentários

    Conseguiu tocar?

    0 Tocaram 0 Ainda não

    Grave um vídeo tocando Anxiety e nos envie!

    00:00 / 00:00
    Outros vídeos desta música
    Repetir Qualidade Automático
    Outros vídeos desta música
    00:00 / 00:00
    Automático

    Cifra Club Pro

    Aproveite o Cifra Club com benefícios exclusivos e sem anúncios
    Cifra Club Pro
    Aproveite o Cifra Club com benefícios exclusivos e sem anúncios
    OK