Cifra Club

Aprenda

If Only

Goldfinger

Cifra: Principal (violão e guitarra)
tom: C
-> Intro:
e:--------------------------------
B:--------------------------------
G:*-------------------------------  (2x)
D:*-------------------------------
A:-----7-8-7---------8-8-7-5------
E:--8---------5---5----------5~~~-

-> Verso 1: C5-A5-G5-C5
    C5  A5   G5  C5 
e:----------------------
B:----------------------
G:*-5------------5------
D:*-5---7----5---5------
A:--3---7----5---3------
E:------5----3----------
  If only I was taller
  If I had a million dollars
  Maybe then you'd be with me
  If only I was eighteen
  and had the courage of the A-Team
  maybe then you'd be with me

-> Refrão:
   C5 B5 A5       F5    C5    G5    F5    G5    C5
E:-------------------------------------------------
B:-------------------------------------------------
G:-5--4-----------------5-----------------------5--
D:-5--4--7--------3-----5-----5-----3-----5-----5--
A:-3--2--7--------3-----3-----5-----3-----5-----3--
E:-------5--------1-----------3-----1-----3--------
  But for now I'll have to dream
  About your smile 'cause you're not
  Here and all I want to say is
  That I really miss you

Riff 2:
e:--------------
B:--------------
G:--------------
D:--------------
A:---7-8-7------
E:-8-------8----
-> Verso 2: C5-D5-G5-C5*        Riff 3
    C5  D5   G5  C5*
e:----------------------        e:------------------
B:----------------------        B:------------------
G:*-5---7--------5------        G:------------------
D:*-5---7----5---5------        D:------------------
A:--3---5----5---3------        A:-----7-8-8-7-7----
E:-----------3----------        E:-8-8-----------8-8 
* Verso 2
  If I could surf a little better      Obs.: C5* - Btida única sem soar
  If I had Sumner's sweater
  maybe then you'd be with me
* Riff 3
* Verso 2  
  If only I had more time
  If I had Mike Ness' hairline
  then you'd want to be with me
* Riff 3

-> Refrão
-> Intro (2x)

Solo:
   A#5    D5     F5 E5 D5   A#5   D5     
e:----------------------------------------
B:----------------------------------------
G:*-------7~~----10--9--7----------7~~~---
D:*-8~~---7~~----10--9--7----8~~---7~~~---
A:--8~~---5~~----8---7--5----8~~---5~~~---
E:--6~~----------------------6~~----------
    C5           B5  C5
e:--------------------------
B:--------------------------
G:*-5-5-5-5------4-/-5-5-5--
D:*-5-5-5-5------4-/-5-5-5--
A:--3-3-3-3------2-/-3-3-3--
E:--------------------------

Verso 3: C5-F5-C5-A5
    C5  F5   C5  A5
e:----------------------
B:----------------------
G:*-5--------5----------
D:*-5---3----5---7------
A:--3---3----3---7------
E:------1--------5------
  If only you weren't so fine
  If only I wasn't so blind

   F5   D5  C5 B5 A5 G5  Em
e:---------------------------
B:---------------------------
G:-10-----7--5--4------------
D:-10-----7--5--4--7--5---2--
A:--8-----5--7--2--7--5---2--
E:-----------------5--7---0--
  F5   
  I'd find a way
  D5  
  to make you stay
  C5    B5   A5  G5   Em...
  then maybe I'd see you

Solo 2:
   Em   A      G       A      G
D:-2--------7------5-------7------5-
A:-2----7-7-7--5-5-5---7-7-7--5-5-5- 4x
E:-0----5-5-5--3-3-3---5-5-5--3-3-3-
-> Verso 3
    C5  A5   G5  C5 
e:----------------------
B:----------------------
G:*-5------------5------
D:*-5---7----5---5------
A:--3---7----5---3------
E:------5----3----------
  If I woke up with all these things
  Would it even change your feelings
  None of that is even me

-> Refrão 

Colaboração e revisão:
  • Rodolfo Silva
4.941 exibições
    • ½ Tom
    • A
    • Bb
    • B
    • C
    • Db
    • D
    • Eb
    • E
    • F
    • F#
    • G
    • Ab
  • Adicionar à lista

    0 comentários

    Ver todos os comentários

    Conseguiu tocar?

    0 Tocaram 0 Ainda não

    Grave um vídeo tocando If Only e nos envie!

    00:00 / 00:00
    outros vídeos desta música
    repetir qualidade Automático
    Outros vídeos desta música
    00:00 / 00:00
    Automático

    Cifra Club Pro

    Aproveite o Cifra Club com benefícios exclusivos e sem anúncios
    Cifra Club Pro
    Aproveite o Cifra Club com benefícios exclusivos e sem anúncios
    OK