Cifra Club

Aprenda

Radio

Goldfinger

Cifra: Principal (violão e guitarra)
tom: D




Intro (Sem distorção)
e|-----------------------------------------------------------------
B|-----------------------------------------------------------------
G|-----7-6-------------------7-6----------------------------------- (2x)
D|-0-------7--5--4--5/7--0--------7--5--7/9--7---------------------
A|-----------------------------------------------------------------
E|-----------------------------------------------------------------

  COM DISTORÇÃO
e|-----------------------------------------------------------------
B|-----------------------------------------------------------------
G|-----7-6-------------------7-6-----------------------------------
D|-0-------7--5--4--5/7--0--------7--5--7/9--7---------------------
A|-----------------------------------------------------------------
E|-----------------------------------------------------------------

e|---------------------------------------------------------------------
B|---------------------------------------------------------------------
G|-------7-6----------------------7--6--7/9--7--9/12--11/--------------
D|---0--------7--5-5--4--5/7-0------------------------------12---------
A|---------------------------------------------------------------------
E|---------------------------------------------------------------------

Verse 1 e 2 (Power Chords - Distorção)
e|-------------------------------------------
B|-------------------------------------------
G|-----7-------------------------------------
D|-----7--------5--------7-------------------
A|-----5--------5--------7-------------------
E|--------------3--------5-------------------
   Verse 1
It's 9 o clock she's late for work
She hates her job her boss is a jerk.
Her boyfriend never let's her play
She thinks she's wasting life away
   Verse 2
It's 5 o clock she gets in her car
She's drivin fast but never goes far.
Parked on the freeway slips in a rage
Time to ride the air waves

Refrão
e|---------------------------------------------------------
B|---------------------------------------------------------
G|---------------7----------4---------------------7~~~~~~--
D|---5-----7-----7----7-----4---------5-----7-----7~~~~~~--
A|---5-----7-----5----4-----2---------5-----7-----5~~~~~~--
E|---3-----5--------------------------3-----5--------------

Long live my radio 
It never let's me down
Long live my radio
Give me sound


Solinho
e|-------------------------------------------------
B|-------------------------------------------------
G|-----7-6-------------------7-6-------------------
D|-0-------7--5--4--5/7--0--------7--5--4--5/7--0--
A|-------------------------------------------------
E|-------------------------------------------------

Verse 3 e 4 (Palm Mute - Abafado)
e|-------------------------------------------
B|-------------------------------------------
G|-----7-------------------------------------
D|-----7--------5--------7-------------------
A|-----5--------5--------7-------------------
E|--------------3--------5-------------------

Verse 3 (Só abafado!!)
Nothing to do Nothing to say
Just trying to find another way
To a different world some other plane
Where I can be myself without goin insane

Verse 4 (DISTORÇÃO ABAFADA!!!)
This little place that we call life
There's more to it than just painted stripes
Gotta find that somewhere in your brain
Gotta ride some air waves

Refrão
e|-------------------------------------------------------------------------
B|-------------------------------------------------------------------------
G|---------------7----------4------------------7-------------7-------------
D|---5-----7-----7----7-----4------5-----7-----7------7------7----7----5---
A|---5-----7-----5----4-----2------5-----7-----5------7------5----7----5---
E|---3-----5-----------------------3-----5------------5-----------5----3---
Long live my radio 
It never let's me down
Long live my radio
Give me sound

Bridge 1
e|-----------------------------------------------------------------------
B|-----------------------------------------------------------------------
G|---------------7----------4------------------7-------------7-----------
D|---5-----7-----7----7-----4-----5------7-----7-------7-----7------7----
A|---5-----7-----5----4-----2-----5------7-----5-------7-----5------7----
E|---3-----5----------------------3------5-------------5------------5----

Long live my radio please make it alright.
Long live my radio tonight.

Bridge 2
e|-------------------------------------------------------------------------
B|-------------------------------------------------------------------------
G|---------------------------------------------------------------------6---
D|---------------------------------------------------4----------4----------
A|----2-2-4--2------------------------------------------5--4---------------
E|-----------------2----2--3--2--0--2----3--3--5--3------------------------

Bridge 2
And when the statics screaming louder than your life.
Just try to ride a wave in the air tonight.

I make a dedication try to make it right.
So you can hear it on the airwaves, airwaves.
Long live my radio it never lets me down
Long live my radio tonight.

Refrão
e|-------------------------------------------------------------------------------
B|-------------------------------------------------------------------------------
G|---------------7----------4------------------------7-------------7-------------
D|---5-----7-----7----7-----4------------5-----7-----7------7------7----7----5---
A|---5-----7-----5----4-----2------------5-----7-----5------7------5----7----5---
E|---3-----5-----------------------------3-----5------------5-----------5----3---

Long live my radio (always)
It never let's me down
Long live my radio
Give me sound

e|-------------------------------------------------------------------------------
B|-------------------------------------------------------------------------------
G|---------------7----------4--------------------------7-------------7-----------
D|---5-----7-----7----7-----4-----7-------5------7-----7-------7-----7------7----
A|---5-----7-----5----4-----2-----7-------5------7-----5-------7-----5------7----
E|---3-----5----------------------5-------3------5-------------5------------5----


Long live my radio (oh) please make it alright.
Long live my radio (****) tonight....tonight..
Long live my radio tonight

**** Entra junto com o "TONIGHT" (baixo)
e|--------------------------------------------------------
B|--------------------------------------------------------
G|-------7-6-----------------------7-6--------------------
D|----0-------7--5--4--5/7---0----------7--5--4--5/7---0--
A|--------------------------------------------------------
E|--------------------------------------------------------

Solo Final (Guitarra)
e|--------------------------------------------
B|--------------------------------------------
G|-------7-6--------------------7-6-----------
D|----0-------7--5--4--5/7---0------7--5~~~---
A|--------------------------------------------
E|--------------------------------------------
Composição de John Feldmann / Kelly Lemieux
Colaboração e revisão:
  • Rodolfo Silva
1.699 exibições
    • ½ Tom
    • A
    • Bb
    • B
    • C
    • Db
    • D
    • Eb
    • E
    • F
    • F#
    • G
    • Ab
  • Adicionar à lista

    0 comentários

    Ver todos os comentários

    Conseguiu tocar?

    0 Tocaram 0 Ainda não

    Grave um vídeo tocando Radio e nos envie!

    00:00 / 00:00
    outros vídeos desta música
    repetir qualidade Automático
    Outros vídeos desta música
    00:00 / 00:00
    Automático

    Cifra Club Pro

    Aproveite o Cifra Club com benefícios exclusivos e sem anúncios
    Cifra Club Pro
    Aproveite o Cifra Club com benefícios exclusivos e sem anúncios
    OK