Cifra Club

Cry On Demand

Gomez

Cifra: Principal (violão e guitarra)
Selo Cifra Club: esta cifra foi revisada para atender aos critérios oficiais da nossa Equipe de Qualidade.
tom: Gm
    Dsus2        A   Asus4    G     Asus4   A
E|-------0h2-----0-----0------2-------0-----0-----|
B|--3--------3---2-----3------2-------3-----2-----|
G|--2------------2-----2------0-------2-----2-----|
D|--0------------2-----2------0-------2-----2-----|
A|---------------0-----0------2-------0-----0-----|
E|----------------------------3-------------------|
Fig 1. 


[Chorus]
Follow Fig. 1 (x4)

        I wish I could cry on demand,
        Boo Hoo, Boo Hoo
        Given all these troubles on my mind,
        The tears won't come out.


[Verse]
This one is the strumming pattern for the verse:

  C         D      D   C          D      D   F          G      G   F          G     G#
E|0-0-0-0-0-2-2----2-2-0-0-0-0----2-2----2-2-1-1-1-1----3-3----3-3-1-1-1-1----3-3---4---|
B|1-1-1-1-1-3-3----3-3-1-1-1-1----3-3----3-3-1-1-1-1----3-3----3-3-1-1-1-1----3-3---4---|
G|0-0-0-0-0-2-2----2-2-0-0-0-0----2-2----2-2-2-2-2-2----4-4----4-4-2-2-2-2----4-4---5---|
D|2-2-2-2-2-0-0----0-0-2-2-2-2----0-0----0-0-3-3-3-3----5-5----5-5-3-3-3-3----5-5---6---|
A|3-3-3-3-3------------3-3-3-3---------------3-3-3-3----5-5----5-5-3-3-3-3----5-5---6---|
E|-------------------------------------------1-1-1-1----3-3----3-3-1-1-1-1----3-3---4---|
Fig. 2

Follow Fig. 2 (x3)

      I've been shaking, shaking in my boots
      Every time I hear my telephone 

      ring, it can't possibly be you,
      You never call,
      Not since my little accident.

[Pre-Chorus]

      Bb         D      Gm
      I didn't mean to cause any trouble
      Bb         D          Gm  F  Eb
      I didn't know we were so serious
      Bb         D            Gm
      Yeah, I didn't mean to burst our bubble
              Eb             F
      It can only float for so long

[Verse]
Follow Fig. 2 (x3)

      Now I realise, I realise they were wrong,
      Cause what happens in Vegas,
      Don't take very long,

      To travel accross continents,
      And onwards overseas,
      Onto our little island,
      To our city, our home,
      But

[Pre-Chorus]

      Bb         D      Gm
      I didn't mean to cause any trouble
      Bb         D          Gm  F  Eb
      I didn't know we were so serious
      Bb         D            Gm
      Yeah, I didn't mean to burst our bubble
              Eb             F
      It can only float for so long


[Chorus]
Follow Fig. 1 (x4)

        Sometimen I wish I could cry on demand,
        Boo Hoo, Boo Hoo
        Given all these troubles on my mind,
        The tears won't come out.


Now a short interlude with the verse pattern but extending the G instead of going back to F
    D      D   C          D      D   F          G                      G#
E|--2-2----2-2-0-0-0-0----2-2----2-2-1-1-1-1----3-3----3---3---3---3---4-----|
B|--3-3----3-3-1-1-1-1----3-3----3-3-1-1-1-1----3-3----3---3---3---3---4-----|
G|--2-2----2-2-0-0-0-0----2-2----2-2-2-2-2-2----4-4----4---4---4---4---5-----|
D|--0-0----0-0-2-2-2-2----0-0----0-0-3-3-3-3----5-5----5---5---5---5---6-----|
A|-------------3-3-3-3---------------3-3-3-3----5-5----5---5---5---5---6-----|
E|-----------------------------------1-1-1-1----3-3----3---3---3---3---4-----|

[Bridge]

The bridge is based in D and Eb


   D                              Eb
E|-----5----5----5-----5----5---5-----6----6----6-----6---8-6--6--------|
B|---7----7----7-----7----7---7-----8----8----8-----8---------8---8-----|
G|-7-----7----7----7-----7---7----8-----8----8----8-----8--------8------| X2
D|----------------------------------------------------------------------|
A|----------------------------------------------------------------------|
E|----------------------------------------------------------------------|

   D                              Eb
E|-----5----5----5-----5----5---5-----6----6----6-----6-----6---6-------|
B|---7----7----7-----7----7---7-----8----8----8-----8-----8-------------|
G|-7-----7----7----7-----7---7----8-----8----8----8-----8-----8---------|
D|----------------------------------------------------------------------|
A|----------------------------------------------------------------------|
E|----------------------------------------------------------------------|

Meanwhile the 2nd guitar does it higher

   D                                                 Eb
E|-------10------10------10-------10------10------10-------11------11------11-------11----13p11-13p11-|
B|----10------10------10-------10------10------10-------11------11------11-------11-------13p11-13p11-|
G|-11-------11------11------11-------11------11------12-------12------12------12-------12-------------|
D|----------------------------------------------------------------------------------------------------|
A|----------------------------------------------------------------------------------------------------|
E|----------------------------------------------------------------------------------------------------|

p: pull off


[Pre-Chorus]

      Bb         D      Gm
      I didn't mean to cause any trouble
      Bb         D          Gm  F  Eb
      I didn't know we were so serious
      Bb         D            Gm
      Yeah, I didn't mean to burst our bubble
              Eb             F
      It can only float for so long


[Chorus]
Follow Fig. 1 (x8)

        I wish I could cry on demand,
        Boo Hoo, Boo Hoo
        Given all these troubles on my mind,
        The tears won't come out.

        I wish I could cry on demand,
        Boo Hoo, Boo Hoo
        Given all these troubles on my mind,
        The tears won't come out.


[Outro] 

Follow Fig. 1 (x2)
        The tears won't come out,
        The tears won't come out.


[Ending]

D
Outros vídeos desta música
    0 exibições
      • ½ Tom
      • Am
      • Bbm
      • Bm
      • Cm
      • C#m
      • Dm
      • Ebm
      • Em
      • Fm
      • F#m
      • Gm
      • G#m
    • Adicionar à lista

    Afinação da cifra

    Afinador online

      0 comentários

      Ver todos os comentários

      Conseguiu tocar?

      0Tocaram0Ainda não

      Grave um vídeo tocando Cry On Demand e nos envie!

      Toque também

      1. Imagem do artista DovesPounding Doves
      2. Imagem do artista ReefPlace Your Hands Reef
      3. Imagem do artista The Beta BandDry The Rain The Beta Band
      4. Imagem do artista Turin BrakesFeeling Oblivion Turin Brakes

      Entre para o Cifra Club PRO

      Tenha acesso a benefícios exclusivos no App e no Site

      • Chega de anúncios

      • Badges exclusivas

      • Mais recursos no app do Afinador

      • Atendimento Prioritário

      • Aumente seu limite de lista

      • Ajude a produzir mais conteúdo

      Cifra Club Pro

      Aproveite o Cifra Club com benefícios exclusivos e sem anúncios
      Cifra Club Pro
      Aproveite o Cifra Club com benefícios exclusivos e sem anúncios
      Ops (: Contenido disponible sólo en portugués.
      OK