Cifra Club

Iris Mandolin

Goo Goo Dolls

Cifra: Principal (violão e guitarra)
Selo Cifra Club: esta cifra foi revisada para atender aos critérios oficiais da nossa Equipe de Qualidade.
tom: D
Intro repeat 2X

E|----------------------------------------------------------| I
B|------0----0----0----0------5--5-----4--4----2--2-----0---| I
G|--------2----2-----0---0--2-------2-------2--------0------| I
D|----------------------------------------------------------| I

Verse 1

     ...GO HOME RIGHT NOW....     ....E SS YOU TONIGHT....
E|----------------------| I      G I---------------I
B|------4--5------------| I      D I------4-5------I
G|-----------5----------| I      A I-----------5---I
D|--------------0-------| I      E I---------------I


CHORUS

Mondolin 1
same as intro

Mandolin 2 D PEAT 4X (7X ON ENDING CHORUS)

E|------4-4-4-4--4---4-4-4-4--4---0-0-0-0-0--0----| I
B|------4-4-4-4--4---4-4-4-4--4---0-0-0-0-0--0----| I
G|------5-5-5-5--5---4-4-4-4--4---5-5-5-5-5--5----| I
D|-----10-7-7-7--7---5-5-5-5--5---2-2-2-2-2--2----| I

D PEAT INTRO!


Vesre 2

...in your lies....  ....like the movies...  ....alive....
E|-----------------------------------------------------------|
B|------4-5--------------------------------------------------|
G|------------5---5--------------5----4------4/5----5----5---|
D|--------------0--------------5------------------2----2-----|


D PEAT CHORUS

Pre interlude    D PEAT 4X

E|------5-----------4-----------5----------4------------| I
B|------------------------------------------------------| I
G|------------------------------------------------------| I
D|--------10--10-------9--9---------7--7------5--5------| I

INTERLUDE
            D PEAT 4X                                   PA Y AT END OF 4 TIME
E|------4-4-4-4---4-4-4-4---4-4---0-0-0-0-0-0-0-| I   I-0-0-0-0---0-0-0-0---I
B|------4-4-4-4---4-4-4-4---4-4---X-X-X-X-X-X-0-| I   I-4-4-4-4---4-4-4-4---I
G|------5-5-5-5---4-4-4-4---4-4---5-5-5-5-5-5-5-| I   I-7-7-7-7---0-0-0-0---I
D|------X-X-X-X---5-5-5-5---5-7---3-2-3-2-3-2-X-| I   I-X-X-X-X---0-0-0-0---I


G  O

     D PEAT 11X
E|-------------------| I
B|------0---0--0-----| I
G|-------0---2---0---| I
D|-------------------| I


END G  O
E|------0---------------------------------------------| I
B|------4--4-----4-----------------------4---5--4-----| I
G|---------5--5--5------4---4-4-5---5------5----------| I
D|------------0-----------5-------5-------------------| I
         ^  ^  D  D

D PEAT CHORUS

OUTRO

E|---------------------------------------------X---X--| I
B|---------------------------------------------X---X--| I
G|------5----5-----5---------5---5-7-9---------5--10--| I
D|--------2-----2---------5-------------5-7-9--9--9---| I

FDE  OUT
E|------X-X-X--X--X----X--X---X-X-X-------| I
B|------X-X-X--X--X----X--X---X-X-X-------| I
G|------5-5-5--5--5----4--4---4-4-4-------| I
D|------5-5-5--5| H/10---5H/7---5-5-5-------I
Outros vídeos desta música
    337 exibições
      • ½ Tom
      • A
      • Bb
      • B
      • C
      • Db
      • D
      • Eb
      • E
      • F
      • F#
      • G
      • Ab
    • Adicionar à lista

    Afinação da cifra

    Afinador online

      0 comentários

      Ver todos os comentários

      Entre para o Cifra Club PRO

      Tenha acesso a benefícios exclusivos no App e no Site

      • Chega de anúncios

      • Badges exclusivas

      • Mais recursos no app do Afinador

      • Atendimento Prioritário

      • Aumente seu limite de lista

      • Ajude a produzir mais conteúdo

      Cifra Club Pro

      Aproveite o Cifra Club com benefícios exclusivos e sem anúncios
      Cifra Club Pro
      Aproveite o Cifra Club com benefícios exclusivos e sem anúncios
      Ops (: Contenido disponible sólo en portugués.
      OK