Cifra Club

Predictable

Good Charlotte

Cifra: Principal (violão e guitarra)
Selo Cifra Club: esta cifra foi revisada para atender aos critérios oficiais da nossa Equipe de Qualidade.
tom: Db
guitarra 1
e|---------------------------------------------------------|
b|---------------------------------------------------------|
g|-8-8--8-8--9-9--9-9--9--9--------------------------------|
d|-9-9--9-9--9-9--9-9--9--9--9-9--9-9--9-9--9-9--9--9------|
a|---------------------------6-6--6-6--7-7--7-7--7--7------|
e|---------------------------------------------------------|
Guitarra 2 

e|------12-11--------------------------|
B|---12--------------------------------|
G|-------------------------------------|

guitarra 2, ele alterna entre esses dois riffs
e|------12-11----9---7-----------------|
B|---12--------------------------------|
G|-------------------------------------|

e|--------------------------|
B|--------------------------|
G|--------------------------|
D|--2-2---2-2---2-2----2----|
A|--2-2---2-2---2-2----2----|
E|--0-0---0-0---0-0--0-0----|

Guitarra 1: 
e|---------------------------------------------------------------------------|
B|---------------------------------------------------------------------------|
G|---------------------------------------------------------------------------|
D|--------1--------1--------1--------1--------2--------2--------2--------2---|
A|--2--4-----2--4-----2--4-----2--4-----2--4-----2--4-----2--4-----2--4------|
E|---------------------------------------------------------------------------|

e|---------------------------------------------------------------------------|
B|---------------------------------------------------------------------------|
G|---------------------------------------------------------------------------|
D|--------3--------3--------3--------3--------3--------3--------3--------3---|
A|--2--4-----2--4-----2--4-----2--4-----4--2-----4--2-----4--2-----4--2------|
E|---------------------------------------------------------------------------|

Guitarra 2:

e|------------------|
B|------------------|
G|--4---------------|
D|--4---2---3---2---|
A|--2---2---3---2---|
E|------0---1---0---|

e|-------|
B|-------|
G|-------|
D|--6----|
A|--6----|
E|--4----|

e|---------------------------------|
B|---------------------------------|
G|------------------4--------------|
D|--2---4---2---6---4---4---2---6--|
A|--2---4---2---6---2---4---2---6--|
E|--0---2---0---4-------2---0---4--|

e|--6-7-4-6---4--------------4-------11--11--11--11-7-7-7-7-7-7---------|
B|----------5---4-5---4---4--------11--12--9---11--5-9-5-9-5-9--0-4-7-8-|
G|------------------6---4----1------------------------------------------|
D|----------------------------------------------------------------------|
A|----------------------------------------------------------------------|
E|----------------------------------------------------------------------|

Guitarra 1: 
e|---------------------------------------------------------------------------|
B|---------------------------------------------------------------------------|
G|---------------------------------------------------------------------------|
D|--------1--------1--------1--------1--------2--------2--------2--------2---|
A|--2--4-----2--4-----2--4-----2--4-----2--4-----2--4-----2--4-----2--4------|
E|---------------------------------------------------------------------------|

e|---------------------------------------------------------------------------|
B|---------------------------------------------------------------------------|
G|---------------------------------------------------------------------------|
D|--------3--------3--------3--------3--------3--------3--------3--------3---|
A|--2--4-----2--4-----2--4-----2--4-----4--2-----4--2-----4--2-----4--2------|
E|---------------------------------------------------------------------------|

Guitarra 2:

e|------------------|
B|------------------|
G|--4---------------|
D|--4---2---3---2---|
A|--2---2---3---2---|
E|------0---1---0---|

Fim
guitarra 1:                                       G#5
e|-----------------------------------|         e|------|
B|-----------------------------------|         B|------|
G|-----------------------------------|         G|------|
D|----------1--2---2--1--------------|   4x    D|---6--|
A|--2--4--2------2-------------------|         A|---6--|
E|-----------------------------------|         E|---4--| 

guitarra 2:
e|---------|
B|---------|
G|--4-4----| faz issu 4x  batendo com a primeira nota du riff i depois
D|--4-4----| toca G#5 tb. 
A|--2-2----|
E|---------|


letra  

Something isn't right, 
I can feel it again, feel it again. 
This isn't the first time, 
That you left me waiting. 
Sad excuses and false hopes high, 
I saw this coming, still I don't know why, 
I let you in. 

I knew it all along, 
You're so predictable. 
I knew something would go wrong... (Something's always wrong...) 
So you don't have to call, 
Or say anything at all. 
You're so predictable... (So predictable...) 

So take your empty words, 
Your broken promises. 
And all the time you stole, 
Cause I am done with this. 
I could give it away, give it away, 
I'm doing everything I should've. 
And now I'm making a change, 
I'm living today. 
I'm giving back what you gave me. 

I don't need anything. 

I knew it all along, 
You're so predictable. 
I knew something would go wrong... (Something's always wrong...) 
So you don't have to call, 
Or say anything at all. 
You're so predictable... (So predictable...) 

Now everywhere I go, 
Everyone I meet, 
Every time I try to fall in love, 
They all want to know why I'm so broken. 
Why I am I so cold, 
Why I'm so hard inside. 
Why am I scared? 
What am I afraid of? 
I don't even know, this story's never had an end. 
I've been waiting, 
I've been searching, 
I've been hoping, 
I've been dreaming you would come back, 
But I know the ending of this story. 
And you're never coming back, 
Never... Never... Never (echo) 

I knew it all along, 
You're so predictable. 
I knew something would go wrong... (Something's always wrong...) 

So you don't have to call, 
Or say anything at all. 
Your so predictable... (So predictable...) 

Everywhere I go for the rest of my life, 
Everyone I love, (So predictable) 
Everyone I care about, 
They're all gonna want to know what's wrong with me 
And I know what it is...(So predictable) 
I'm ending this right now.
Outros vídeos desta música
    37.040 exibições
      • ½ Tom
      • A
      • Bb
      • B
      • C
      • Db
      • D
      • Eb
      • E
      • F
      • F#
      • G
      • Ab
    • Adicionar à lista

    Afinação da cifra

    Afinador online

      0 comentários

      Ver todos os comentários

      Entre para o Cifra Club PRO

      Tenha acesso a benefícios exclusivos no App e no Site

      • Chega de anúncios

      • Badges exclusivas

      • Mais recursos no app do Afinador

      • Atendimento Prioritário

      • Aumente seu limite de lista

      • Ajude a produzir mais conteúdo

      Cifra Club Pro

      Aproveite o Cifra Club com benefícios exclusivos e sem anúncios
      Cifra Club Pro
      Aproveite o Cifra Club com benefícios exclusivos e sem anúncios
      OK