Cifra Club

Tchau!

Good Nightmare

Cifra: Principal (violão e guitarra)
Selo Cifra Club: esta cifra foi revisada para atender aos critérios oficiais da nossa Equipe de Qualidade.
tom: G
     G            C            A           D
e -----------|-----------|-----------|------------
b -----------|-----------|-----------|------------
g -----------|-----------|-----------|------------
d -----------|-5-5-5-5-5-|-----------|-7-7-7-7-7--
a -5-5-5-5-5-|-3-3-3-3-3-|-7-7-7-7-7-|-5-5-5-5-5--
e -3-3-3-3-3-|-----------|-5-5-5-5-5-|------------

  ( G  C  A  D )
  Depois de muito tempo
  Ouvindo você falar de mim
  Pelas minhas costas
  E mesmo pela minha frente
  É tão estranho,
  É tão diferente
  E ao mesmo tempo é tão bom...
  A sensação de estar sozinho
  E ao mesmo tempo tão livre
  Mudou todo o meu caminho
  Agora não estou mais triste!
  Foi tudo uma loucura,
  Também tão natural
  Agora só falta te dizer...

 ( G  C  A  D )
  Tchau!
  Fui embora,
  Não volto nunca mais...
  Tchau!
  Já tava na hora,
  Até que enfim um pouco de paz...

     G            C            A           D
e -----------|-----------|-----------|------------
b -----------|-----------|-----------|------------
g -----------|-----------|-----------|------------
d -----------|-5-5-5-5-5-|-----------|-7-7-7-7-7--
a -5-5-5-5-5-|-3-3-3-3-3-|-7-7-7-7-7-|-5-5-5-5-5--
e -3-3-3-3-3-|-----------|-5-5-5-5-5-|------------
Outros vídeos desta música
    395 exibições
      • ½ Tom
      • A
      • Bb
      • B
      • C
      • Db
      • D
      • Eb
      • E
      • F
      • F#
      • G
      • Ab
    • Adicionar à lista

    Afinação da cifra

    Afinador online

      0 comentários

      Ver todos os comentários

      Conseguiu tocar?

      0Tocaram0Ainda não

      Grave um vídeo tocando Tchau! e nos envie!

      Entre para o Cifra Club PRO

      Tenha acesso a benefícios exclusivos no App e no Site

      • Chega de anúncios

      • Badges exclusivas

      • Mais recursos no app do Afinador

      • Atendimento Prioritário

      • Aumente seu limite de lista

      • Ajude a produzir mais conteúdo

      Cifra Club Pro

      Aproveite o Cifra Club com benefícios exclusivos e sem anúncios
      Cifra Club Pro
      Aproveite o Cifra Club com benefícios exclusivos e sem anúncios
      Ops (: Contenido disponible sólo en portugués.
      OK