Cifra Club

Aprenda

Heavy Metal Breakdown

Grave Digger

Cifra: Principal (violão e guitarra)
tom: E
Riff A         4 x times        let ring
------------------------------|-------------|   
------------------------------|-------------|
-----5-----7-----9-----10--9--|-------------|   
-----5-----7-----9-----10--9--|--5--44-44-|
-0-0---0-0---0-0---0-0--------|--5--44-44-|  
------------------------------|--3--22-22-|

Riff A  
------------------------------|   
------------------------------|
-----5-----7-----9-----10--9--|   
-----5-----7-----9-----10--9--| x4
-0-0---0-0---0-0---0-0--------|  
------------------------------|

Verse               
--------------------------------|  
--------------------------------|
-2------2--7-5---2------2--9-5--|   
-2------2--7-5---2------2--9-5--|
-0------0--------0------0-------|   
--------------------------------|

---------------------------------|   
---------------------------------|
-2------2--7-5---2-----2-2--2-2--|   
-2------2--7-5---2-----2-2--2-2--|
-0------0--------0-----0-0--0-0--|   
---------------------------------|

Bridge                                      
----------------------------------|   
----------------------------------|
-9----8----7----------5--------5--|   
-9----8----7----------5--------5--|
-7----6----5----------3--------3--|   
------------------3-3------3-3----|

----------------------------------|   
----------------------------------|
-9----8----7----------5--------5--|   
-9----8----7----------5--------5--|
-7----6----5----------3--------3--|   
-----------------3333-----3333----|

Riff A  
------------------------------|   
------------------------------|
-----5-----7-----9-----10--9--|   
-----5-----7-----9-----10--9--| x4
-0-0---0-0---0-0---0-0--------|  
------------------------------|

Chorus
-----------------------------------------|
-----------5--------------------5--------|
-7-----5-3-5--5-3-----7-----5-3-5--1-----|
-7-----5-3-3--5-3-----7-----5-3-3--1-----|
-5-----3-1----3-1-----5-----3-1----1-3~~~|
-----------------------------------------|
                                         | x2
-----------------------------------------|
-----------5-----------------------------|
-7-----5-3-5--5-3-----6---------7--------|
-7-----5-3-3--5-3-----6-----9-7-7--7-----|
-5-----3-1----3-1-----4-----9-7-5--7-----|
----------------------------7-5----5-3~~~|

Riff A  
------------------------------|   
------------------------------|
-----5-----7-----9-----10--9--|   
-----5-----7-----9-----10--9--| x4
-0-0---0-0---0-0---0-0--------|  
------------------------------|

Verse               
-------------------------------------|  
-------------------------------------|
-2------2--7-5---2------2--9-5----2--|   
-2------2--7-5---2------2--9-5----2--|
-0------0--------0------0---------0--|   
-------------------------------------|

---------------------------------|   
---------------------------------|
-2------2--7-5---2-----2-2--2-2--|   
-2------2--7-5---2-----2-2--2-2--|
-0------0--------0-----0-0--0-0--|   
---------------------------------|

Bridge                                      
----------------------------------|   
----------------------------------|
-9----8----7----------5--------5--|   
-9----8----7----------5--------5--|
-7----6----5----------3--------3--|   
------------------3-3------3-3----|

----------------------------------|   
----------------------------------|
-9----8----7----------5--------5--|   
-9----8----7----------5--------5--|
-7----6----5----------3--------3--|   
-----------------3333-----3333----|

Riff A  
------------------------------|   
------------------------------|
-----5-----7-----9-----10--9--|   
-----5-----7-----9-----10--9--| x4
-0-0---0-0---0-0---0-0--------|  
------------------------------|

Chorus
-----------------------------------------|
-----------5--------------------5--------|
-7-----5-3-5--5-3-----7-----5-3-5--1-----|
-7-----5-3-3--5-3-----7-----5-3-3--1-----|
-5-----3-1----3-1-----5-----3-1----1-3~~~|
-----------------------------------------|
                                         | x2
-----------------------------------------|
-----------5-----------------------------|
-7-----5-3-5--5-3-----6---------7--------|
-7-----5-3-3--5-3-----6-----9-7-7--7-----|
-5-----3-1----3-1-----4-----9-7-5--7-----|
----------------------------7-5----5-3~~~|

Riff A  
------------------------------|   
------------------------------|
-----5-----7-----9-----10--9--|   
-----5-----7-----9-----10--9--| x4
-0-0---0-0---0-0---0-0--------|  
------------------------------|

Chorus
-----------------------------------------|
-----------5--------------------5--------|
-7-----5-3-5--5-3-----7-----5-3-5--1-----|
-7-----5-3-3--5-3-----7-----5-3-3--1-----|
-5-----3-1----3-1-----5-----3-1----1-3~~~|
-----------------------------------------|
                                         | x4 [Solo - played over Chorus Riff]
-----------------------------------------|
-----------5-----------------------------|
-7-----5-3-5--5-3-----6---------7--------|
-7-----5-3-3--5-3-----6-----9-7-7--7-----|
-5-----3-1----3-1-----4-----9-7-5--7-----|
----------------------------7-5----5-3~~~|

Riff B
--------------------------------|   
--------------------------------|
------5-------5-------5-------5-|   
------5-------5-------5-------5-|
------3-------3-------3-------3-|   
-3333----3333----3333----3333---|

Chorus
-----------------------------------------|
-----------5--------------------5--------|
-7-----5-3-5--5-3-----7-----5-3-5--1-----|
-7-----5-3-3--5-3-----7-----5-3-3--1-----|
-5-----3-1----3-1-----5-----3-1----1-3~~~|
-----------------------------------------|
                                         | x4
-----------------------------------------|
-----------5-----------------------------|
-7-----5-3-5--5-3-----6---------7--------|
-7-----5-3-3--5-3-----6-----9-7-7--7-----|
-5-----3-1----3-1-----4-----9-7-5--7-----|
----------------------------7-5----5-3~~~|

End
----------------------------------------|   
----------------------------------------|
------5-------5-------5-------5-------7-|   
------5-------5-------5-------5-------7-|
------3-------3-------3-------3-------5-|   
-3333----3333----3333----3333-----------|
Composição de Grave Digger
Colaboração e revisão:
  • Taino Vieira
1.533 exibições
    • ½ Tom
    • A
    • Bb
    • B
    • C
    • Db
    • D
    • Eb
    • E
    • F
    • F#
    • G
    • Ab
  • Adicionar à lista

    0 comentários

    Ver todos os comentários

    Conseguiu tocar?

    0 Tocaram 0 Ainda não

    Grave um vídeo tocando Heavy Metal Breakdown e nos envie!

    00:00 / 00:00
    Outros vídeos desta música
    Repetir Qualidade Automático
    Outros vídeos desta música
    00:00 / 00:00
    Automático

    Cifra Club Pro

    Aproveite o Cifra Club com benefícios exclusivos e sem anúncios
    Cifra Club Pro
    Aproveite o Cifra Club com benefícios exclusivos e sem anúncios
    OK