Cifra Club

Aprenda

Lionheart

Grave Digger

Cifra: Principal (violão e guitarra)
tom: G
INTRO:
Slighty block your strings when playing this (it sounds better with an
acoustic guitar)

Intro perfeita da lionheart
e|--------------------------------|------------------------------|
B|--------------------------------|------------------------------|
G|--------------------------------|------------------------3---3-|
D|-0-0-3--0-0-2--0-0-3--0-0-5---3-|-0-0-3-0-0-2-0-0-3--0-0-3---3-|
A|--------------------------------|------------------------------|
E|--------------------------------|------------------------------|

e|--------------------------------|------------------------------|
B|--------------------------------|------------------------------|
G|--------------------------------|------------------------5---5-|
D|-0-0-3--0-0-2--0-0-3--0-0-5---3-|-0-0-3-0-0-2-0-0-3--0-0-5---5-|
A|--------------------------------|------------------------------|
E|--------------------------------|------------------------------|

VERSE:

       Fiery red curls        cover his shoulder
e|---------------------------------------------------|
B|---------------------------------------------------|
G|---------------------------------------------------|
D|--12-12-12-12-12-12-12-12--10-10-10-10-10-10-10-10-|
A|--12-12-12-12-12-12-12-12--10-10-10-10-10-10-10-10-|
E|--10-10-10-10-10-10-10-10--8--8--8--8--8--8--8--8--|

       he's the ruler          no one is bolder...
e|---------------------------------------------------|
B|---------------------------------------------------|
G|---------------------------------------------------|
D|-----8-8-8-8-8-8-8-8-------10-10-10-10-10-10-10-10-|
A|-----8-8-8-8-8-8-8-8-------10-10-10-10-10-10-10-10-|
E|-----6-6-6-6-6-6-6-6-------8--8--8--8--8--8--8--8--|

BRIDGE:

  A man like a lion with a generous heart
e|-------------------------------------------
B|-------------------------------------------
G|-------------------------------------------
D|--12-12-10-10-8-8------7-------------------
A|--12-12-10-10-8-8----7---7------5------3---
E|--10-10-8--8--6-6--5-------5--3---3--1---1-

 For his sake thousands die Lionheart England's pride
e|----------------------------------------------------
B|----------------------------------------------------
G|----------------------------14-14-14-15-15-17-17-17-
D|--12-12-15-15-17-17-17-17---14-14-14-15-15-17-17-17-
A|--12-12-15-15-17-17-17-17---12-12-12-13-13-15-15-15-
E|--10-10-13-13-15-15-15-15---------------------------

CHORUS:
Actually, you're not supposed to play anything during the chorus, but
during the outro chorus, you'll play these chords (if you play this song
with a band, play this version of the chorus)


   Li   -   on - heart   Almighty king   freedom you'll bring
e|------------------------------------------------------------
B|------------------------------------------------------------
G|------------------------------------------------------------
D|--12-12--15-15--8-8-8-8--12-12-12-12--------10-10-10-10-----
A|--12-12--15-15--8-8-8-8--12-12-12-12--------10-10-10-10-----
E|--10-10--13-13--6-6-6-6--10-10-10-10--------8--8--8--8------

   Spread  your   wings     king of     the kings
e|------------------------------------------------------
B|------------------------------------------------------
G|------------------------------------------------------
D|--12-12--15-15--8-8-8-8--12-12-12-12--10-10-10-10-----
A|--12-12--15-15--8-8-8-8--12-12-12-12--10-10-10-10-----
E|--10-10--13-13--6-6-6-6--10-10-10-10--8--8--8--8------

PRe|-SOLO RIFF:

e|-----------------------------------------------------
B|-----------------------------------------------------
G|-----------------------------------------------------
D|-----------------------------------------------------
A|--5---5-7-8-7---7-8-10-8---8-10-12-10---13-12-8-5----
E|-----------------------------------------------------

SOLO:
Make up what you want to in D pentatonic.

Alright, another song from "Knights of the cross".

or if you want some more Grave Digger tabs.
Coming soon: Inquisition, The curse of Jacques.
Composição de Grave Digger
Colaboração e revisão:
  • Henrique ALUcard
3.010 exibições
    • ½ Tom
    • A
    • Bb
    • B
    • C
    • Db
    • D
    • Eb
    • E
    • F
    • F#
    • G
    • Ab
  • Adicionar à lista

    0 comentários

    Ver todos os comentários

    Conseguiu tocar?

    0 Tocaram 0 Ainda não

    Grave um vídeo tocando Lionheart e nos envie!

    00:00 / 00:00
    Outros vídeos desta música
    Repetir Qualidade Automático
    Outros vídeos desta música
    00:00 / 00:00
    Automático

    Cifra Club Pro

    Aproveite o Cifra Club com benefícios exclusivos e sem anúncios
    Cifra Club Pro
    Aproveite o Cifra Club com benefícios exclusivos e sem anúncios
    OK