Cifra Club

Aprenda

Scotland United

Grave Digger

Cifra: Principal (violão e guitarra)
tom: C
Intro riff
  |-----------------------------------------------------------|
  |-----------------------------------------------------------|
  |-----------------------------------------------------------|
  |-5-5-7-----------5-5-7-----------5-5-7-----------5-5-3-(3)-|
  |-3-3-5-5555-5555-3-3-5-5555-5555-3-3-5-5555-5555-3-3-1-(1)-|
  |-----------------------------------------------------------|
          p.m......       p.m......       p.m......

   Riff 1
  |---------------------------------------------------------------|
  |---------------------------------------------------------------|
  |-------------------------------------------------------/5--4-7-|
  |-5-5-7-----------5-5-7-----------5-5-7-----------5-5-5-/3--2-5-|
  |-3-3-5-5555-5555-3-3-5-5555-5555-3-3-5-5555-5555-3-3-3---------|
  |---------------------------------------------------------------|
          p.m......       p.m......       p.m......


  |-----------------------------------------------------------|
  |-----------------------------------------------------------|
  |-----------------------------------------------------------|
  |-5-5-7-----------5-5-7-----------5-5-7-----------5-5-3-(3)-|
  |-3-3-5-5555-5555-3-3-5-5555-5555-3-3-5-5555-5555-3-3-1-(1)-|
  |-----------------------------------------------------------|
          p.m......       p.m......       p.m......
    
   Verse riff 1 (2x)
  |---------------------------------------------------------------|
  |---------------------------------------------------------------|
  |-5-5-2-----------5-5-2-----------5-5-2-----------5-5-5---------|
  |-5-5-2-----------5-5-2-----------5-5-2-----------5-5-5-/5--4-7-|
  |-------0000-0000-------0000-0000-------0000-0000-------/3--2-5-|
  |---------------------------------------------------------------|
          p.m......       p.m......       p.m......

   Riff 1

   Verse riff 1 (2x)


   Verse riff 2
  |-----------------------------|----------------------------|
  |-----------------------------|----------------------------|
  |-----------------------------|----------------------------|
  |-----------------------------|----------------------------|
  |-5-(5)-2-(2)-3-(3)-5-(5)-----|-5-(5)-2-(2)-3-(3)-5-55-55--|
  |-5-(5)-0-(0)-1-(1)-3-(3)-3-1-|-5-(5)-0-(0)-1-(1)-3-33-33--|
                            p.m

   Chorus
  |----------------------------------------------------------------------------------|
  |----------------------------------------------------------------------------------|
  |----------------555-----------------------------------555-------------------------|
  |-7----5----7----333-7----5----7----333-7----5----7----333-7----5------------------|
  |-5-55-3-33-5-55-----5-55-3-33-5-55-111-5-55-3-33-5-55-----5-55-3-33-555555-333333-|
  |----------------------------------------------------------------------------------|
      p.m  ..   ..       ..   ..   .. ...   ..   ..   ..       ..   .. ...... ......

                                                                                  Then
  |------------------------------------------------------------------------------|---------------|
  |------------------------------------------------------------------------------|---------------|
  |----------------555-----------------------------------555---------------------|---------------|
  |-7----5----7----333-7----5----7----333-7----5----7----333-7----5----7----5----|-3-(3)-3-5-(5)-|
  |-5-55-3-33-5-55-----5-55-3-33-5-55-111-5-55-3-33-5-55-----5-55-3-33-5-55-3-33-|-1-(1)-1-3-(3)-|
  |------------------------------------------------------------------------------|---------------|
      p.m  ..   ..       ..   ..   .. ...   ..   ..   ..       ..   ..   ..   .. 

   Interlude
  |------------------------------------------|-----------------------------------|
  |------------------------------------------|-----------------------------------|
  |-----------------------2--3-2-------------|-----------------------------------|
  |-------3-2~(2)-5-3~(3)--------5-3-5-3-2---|-------3-2~(2)-5-3-(3)-------------|
  |-5~(5)----------------------------------3-|-5~(5)---------3-1-(1)-5-(5)-3-(3)-|
  |------------------------------------------|-----------------------3-(3)-1-(1)-|

   Solo
  |------------------------------------------------------------------------------------------|
  |---------------------------------------------------------------------------------8--------|
  |-----------------------------------------10------12fb-12fbr-12p10--9-9--7-7~-------7-7----|
  |--------------------------------------10----12~-------------------------------10-------7~-|
  |-8~(8)-8-8h10~--8-10-8~(8)-8-10~--12------------------------------------------------------|
  |------------------------------------------------------------------------------------------|

  |-----------------------------------------------------------------------------------------|
  |-13p10-9-10-13p10-9-10-13p10-9-10-13p10-9-10-13p10-9-10-13p10-9-10-13p10-9-10-13p10-9-10-|
  |-----------------------------------------------------------------------------------------|
  |-----------------------------------------------------------------------------------------|
  |-----------------------------------------------------------------------------------------|
  |-----------------------------------------------------------------------------------------|

  |----------------------------------------------15fbr15~-------15----------------------|
  |-15~--15-15-15fbr------------------13fbr13~-------------17hb----17hbr(17hbr)-15~(15)-|
  |------------------14~--14------------------------------------------------------------|
  |---------------------------15-12~----------------------------------------------------|
  |-------------------------------------------------------------------------------------|
  |-------------------------------------------------------------------------------------|

                               Then
    Solo riff (3x)              (4x)     (4x)     (4x)      (4x)
  |---------------------------|--------|--------|---------|-----------|
  |*-------------------------*|--------|--------|---------|-----------|
  |---------------------------|--------|--------|---------|-----------|
  |--7-(7)-5-(5)-3-(3)-2-(2)--|-7--7-7-|-9--9-9-|-10-1010-|-12--12-12-|
  |*-5-(5)-3-(3)-1-(1)-0-(0)-*|-5--5-5-|-7--7-7-|--8--8-8-|-10--10-10-|
  |---------------------------|--------|--------|---------|-----------|
                                   p.m      p.m       p.m       p.m..

   Intro riff
 
   Verse riff 1 (2x)

   Verse riff 2

   Chorus (2x)


   Outro
  |-----------------------------------------------------------|
  |-----------------------------------------------------------|
  |-----------------------------------------------------------|
  |-3-(3)-3-5-(5)-5-2-(2)-2-7-(7)-7-5-3-(3)-------------7-(7)-|
  |-1-(1)-1-3-(3)-3-0-(0)-0-5-(5)-5-3-1-(1)-5-(5)-3--2--5-(5)-|
  |-----------------------------------------3-(3)-1--0--5-(5)-|




  
                                        p.m = palm mute
                                          ~ = vibrato    
                                          / = slide up          
                                          p = pull off
                                          h = hammer on
                                         fb = full bend
                                         hb = half bend
                                        fbr = full bend then release
                                        hbr = half bend then release
                                        (8) = ghost note
                                        
Composição de Grave Digger
2.476 exibições
    • ½ Tom
    • A
    • Bb
    • B
    • C
    • Db
    • D
    • Eb
    • E
    • F
    • F#
    • G
    • Ab
  • Adicionar à lista

    0 comentários

    Ver todos os comentários

    Conseguiu tocar?

    0 Tocaram 0 Ainda não

    Grave um vídeo tocando Scotland United e nos envie!

    00:00 / 00:00
    Outros vídeos desta música
    Repetir Qualidade Automático
    Outros vídeos desta música
    00:00 / 00:00
    Automático

    Cifra Club Pro

    Aproveite o Cifra Club com benefícios exclusivos e sem anúncios
    Cifra Club Pro
    Aproveite o Cifra Club com benefícios exclusivos e sem anúncios
    OK