Cifra Club

21 Guns

Green Day

Cifra: Simples (violão e guitarra)
Tom: F
Intro:
E|-----1-----------5---------|       (da um efeito legal voce colocar o dedo no potenciometro da
B|----------3------------5---| (2x)  sua guitarra e zera-lo quando tocar a primeira nota aumente-o e
G|---------------------------|       depois abaixe-o novamente para fazer em todas as notas)
D|-----0-----------3---------|
A|----------1------------3---|
E|---------------------------|

Verso:
Dm       Bb                F        C
  Do you know what's worth fighting for,
Dm          Bb        F     C
  When it's not worth dying for?
Dm        Bb        F      C
  Does it take your breath away
         Bb                  C
And you feel yourself suffocating?

Dm         Bb         F        C
  Does the pain weigh out the pride?
Dm        Bb          F        C
  And you look for a place to hide?
Dm        Bb             F      C
  Did someone break your heart inside?
 Bb
You're in ruins

Refrão:
(No último C5[onde esta marcado com um *] a segunda guitarra aparece fazendo isso logo após a nota ser tocada)
E|---------------------------|
B|---5--6---8~---------------|
G|---------------------------|
D|---------------------------|
A|---------------------------|
E|---------------------------|


(antes do inicio de cada refrão é tocada apenas uma vez a nota C5 e começa o refrão)

F5  C5      D5
One, 21 guns
C5           Bb5
Lay down your arms
F5           C5*
Give up the fight
F5   C5       D5
One, 21 guns
C5           Bb5   F5        C5*
Throw up your arms into the sky,
        Bb5 F5  C5
You and I

Verso:
Dm          Bb     F          C
  When you're at the end of the road
Dm        Bb       F             C
  And you lost all sense of control
Dm        Bb            F            C
 And your thoughts have taken their toll
         Bb                              C
When your mind breaks the spirit of your soul
Dm     Bb             F        C
  Your faith walks on broken glass
Dm         Bb      F        C
  And the hangover doesn't pass
Dm          Bb   F        C
  Nothing's ever built to last
        Bb
You're in ruins.

Refrão:
F5  C5      D5
One, 21 guns
C5          Bb5
Lay down your arms
F5          C5
Give up the fight
F5  C5      D5
One, 21 guns
C5            Bb5   F5        C5
Throw up your arms into the sky,
       Bb5 F5 C5
You and I

Ponte:
D5      Bb5    F5           C5
Did you try to live on your own
D5       Bb5             F5        A5
When you burned down the house and home?
D5      Bb5       F5           A5
Did you stand too close to the fire?
        Bb5                  C5               F5
Like a liar looking for forgiveness from a stone

Solo F5 C5 D5 C5 Bb5 F5 C5 (2x)
      Bb5 F5 A5
E|---5----5---------------------------------------------|
B|----6-8---6---6-----6-----3----------5-5-5-5-5-6-8----|
G|-5----------7---7-9---7-3---3-5-3-2-------------------|
D|------------------------------------------------------|
A|------------------------------------------------------|
E|------------------------------------------------------|

E|-----5----5--------------------------------------------------|
B|------6-8---6---6-----6-----3----------5-5-5-5-5-6-16b18b16--|
G|-5------------7---7-9---7-3---3-5-3-2------------------------|
D|-------------------------------------------------------------|
A|-------------------------------------------------------------|
E|-------------------------------------------------------------|

E|-------------------0-0-0-0-0-0-0-0-|
B|--3--------------------------------|
G|----5--3--5-2-3--------------------|
D|-----------------------------------|
A|-----------------------------------|
E|-----------------------------------|

Intro:
E|-----1-----------5---------|
B|----------3------------5---|
G|---------------------------| (2x)
D|-----0-----------3---------|
A|----------1------------3---|
E|---------------------------|

Verso:
Dm          Bb       F           C
  When it's time to live and let die
Dm        Bb         F       C
  And you can't get another try
Dm           Bb          F        C
  Something inside this heart has died
Bb
You're in ruins.

Refrão:
F5  C5      D5
One, 21 guns
C5           Bb5
Lay down your arms
F5         C5                     (2x)
Give up the fight
F5  C5      D5
One, 21 guns
C5           Bb5   F5          C5
Throw up your arms into the sky,

Final:
     Bb5 F5  C5 (deixa soar o último acorde)
You and I
exibições 41.792
Acordes para:
    Composição: Billie Joe Armstrong / Green Day Colaboração e revisão:
    • Alex
    • Bordin

    0 comentários

    mostrar mais comentários

    Conseguiu tocar?

    15 tocaram 0 ainda não

    Grave um vídeo tocando 21 Guns e mande pra gente!

    00:00 / 00:00
    outros vídeos desta música
    repetir qualidade Automático
    Outros vídeos desta música
    00:00 / 00:00
    Automático
    Capítulos
    • Início
    • Tocando a Música
    • Tocando Introdução
    • Ensinando Introdução
    • Acordes Primeira Parte
    • Tocando Primeira Parte
    • Ensinando Ritmo da Música
    • Acordes Refrão
    • Tocando o Refrão
    • Ensinando Ritmo Refrão
    • Ensinando Guitarra Riff 2
    • Acordes Terceira Parte
    • Tocando Terceira Parte
    • Ritmo Terceira Parte
    • Ensinando Riff 3
    • Tocando o Solo
    • Ensinando Base do Solo
    • Ensinando o Solo
    • Tocando Variação Riff 1
    • Ensinando Variação Riff 1
    • Tocando Quarta Parte
    • Ensinando Riff 4
    • Encerramento
    OK