Cifra Club

All By Myself

Green Day

Cifra: Principal (violão e guitarra)
tom: D
Intro e verso
e|-------2----------2----------2------------2---
B|------3----------3----------3------------3----
G|-----------------------------------------------
D|--0----------0---------0------------0---------
A|----------------------------------------------
E|----------------------------------------------

e|-------3----------3----------3------------3----
B|------3----------3----------3------------3------
G|--0-----------0----------0----------0----------
D|------------------------------------------------
A|------------------------------------------------
E|-----------------------------------------------

I was alone
I was all by myself
No one was looking
I was thinking of you
Oh, yeah, did I mention

e|-------4----------4----------4------------4---
B|------5----------5----------5------------5----
G|----------------------------------------------
D|--6----------6---------6------------6---------
A|----------------------------------------------
E|----------------------------------------------

e|-------5----------5----------5------------5---
B|------5----------5----------5------------5----
G|----------------------------------------------
D|--7----------7---------7------------7---------
A|----------------------------------------------
E|----------------------------------------------

I was all by myself
all by myself(3x)

e|-------2----------2----------2------------2-----
B|------3----------3----------3------------3------
G|-------------------------------------------------
D|--0----------0---------0------------0------------
A|-------------------------------------------------
E|-------------------------------------------------

e|-------3----------3----------3------------3-----
B|------3----------3----------3------------3------
G|--0-----------0----------0----------0-----------
D|------------------------------------------------
A|------------------------------------------------
E|------------------------------------------------

I went to your house
But no one was there
I went in your room
I was all by myself

e|-------4----------4----------4------------4----
B|------5----------5----------5------------5-----
G|-----------------------------------------------
D|--6----------6---------6------------6----------
A|-----------------------------------------------
E|-----------------------------------------------

e|-------5----------5----------5------------5----
B|------5----------5----------5------------5-----
G|-----------------------------------------------
D|--7----------7---------7------------7----------
A|-----------------------------------------------
E|-----------------------------------------------

You and me had
Such wonderful times
When I'm all by myself
all by myself(2x)


Obs: Escute a música com muita atenção e tente acompanhar, e vc vai ver q ñ é difícil!
00:00 / 00:00
Outros vídeos desta música
Repetir
Outros vídeos desta música
Composição de Tre Cool
24.888 exibições
    • ½ Tom
    • A
    • Bb
    • B
    • C
    • Db
    • D
    • Eb
    • E
    • F
    • F#
    • G
    • Ab
  • Adicionar à lista

    0 comentários

    Ver todos os comentários

    Entre para oCifra Club PRO

    Tenha acesso a benefícios exclusivos no App e no Site

    • Chega de anúncios

    • Prioridade de compra em lançamentos

    • Mais recursos no app do Afinador

    • Atendimento Prioritário

    • Descontos nos produtos Cifra Club

    • Ajude a produzir mais conteúdo

    00:00 / 00:00

    Cifra Club Pro

    Aproveite o Cifra Club com benefícios exclusivos e sem anúncios
    Cifra Club Pro
    Aproveite o Cifra Club com benefícios exclusivos e sem anúncios
    OK