Enviar cifraEntrar

Holiday

Green Day

Cifra: Principal
exibições 558.455
Tom: G#
Intro: Fm  Db  Ab  Eb  (4x)
      (F5  Db5  Ab5  Eb5 )(2x)

Primeira Parte:
F5           Db5          Ab5     Eb5
   Hear the sound of the falling rain
F5         Db5         Ab5  C5      F5
   Coming down like an Armageddon flame (Hey)
      Db5      Ab5       Eb5     C5
The shame, the ones who died without a name

F5           Db5         Ab5     Eb5
   Hear the dogs howling out of key
F5       Db5          Ab5       C5  F5
   To a hymn called "Faith and Misery" (Hey)
      Db5       Ab5     Eb5      C5
And bleed, the company lost the war today

Primeiro Refrão:
F5            Db5              Ab5            Eb5
   I beg to dream and differ from the hollow lies
F5              Db5            Ab5         C5
   This is the dawning of the rest of our lives

On Holiday

( Fm  Db  Ab  Eb ) (2x)

Segunda Parte:

F5            Db5         Ab5     Eb5
   Hear the drum pounding out of time
F5           Db5  Ab5      C5         F5
   Another protestor has crossed the line (Hey)
    Db5       Ab5    Eb5    C5
To find, the money's on the other side

F5        Db5  Ab5     Db5
   Can I get another Amen? (Amen)
F5             Db5
   There's a flag wrapped
  Ab5      C5      F5
Around a score of men (Hey)
   Db5     Ab5    Eb5      C5
A gag, A plastic bag on a monument

Segundo Refrão:

F5            Db5              Ab5            Eb5
   I beg to dream and differ from the hollow lies
F5              Db5            Ab5         C5
   This is the dawning of the rest of our lives

On Holiday

Ponte:


E|-----------------------------------------
B|-----------------------------------------
G|-------------------6\--3--8\--5----------
D|-\-3--3--5-6--6-6--6\--3--8\--5----------
A|-\-3--3--5-6--6-6--4\--1--6\--3----------
E|-\-1--1--3-4--4-4------------------------


E|-----------------------------------------
B|-----------------------------------------
G|-----------------8\--5--10---------------
D|-3--3--5-6--6-6--8\--5--10---------------
A|-3--3--5-6--6-6--6\--3--8----------------
E|-1--1--3-4--4-4--------------------------


(Hey!)


E|-----------------------------------------
B|-----------------------------------------
G|-------------------6\--3--8\--5----------
D|-\-3--3--5-6--6-6--6\--3--8\--5----------
A|-\-3--3--5-6--6-6--4\--1--6\--3----------
E|-\-1--1--3-4--4-4------------------------


E|-----------------------------------------
B|-----------------------------------------
G|-----------------8\--5--10---------------
D|-3--3--5-6--6-6--8\--5--10--\------------
A|-3--3--5-6--6-6--6\--3--8---\------------
E|-1--1--3-4--4-4-------------\------------


Solo: (Db5  Ab5  C5  F5  Eb5 )
      (Db5  Ab5  C5)


E|---------------------------------------------------|
B|-/6—6-6-8-9--------------------8--5----------------|
G|--------------8--6--5~-5-5-5---------5~--5---------|
D|---------------------------------------------------|
A|---------------------------------------------------|
E|---------------------------------------------------|


E|----8-----8----------------------------------------|
B|-6-----6-----6-6~--6-6-8-9-------------------------|
G|-----------------------------8--6--5~--5-----------|
D|---------------------------------------------------|
A|---------------------------------------------------|
E|---------------------------------------------------|


E|------12-12-12-12-12--13~~---|
B|8-8/13-----------------------|
G|-----------------------------|
D|-----------------------------|
A|-----------------------------|
E|-----------------------------|


Terceira Parte:

The representative from California has the floor
Zieg Heil to the president gasman
Bombs away is your punishment
Pulverize the Eiffel towers
Who criticize your government
Bang bang goes the broken glass
Kill all the fags that don't agree
Trials by fire, setting fire
                     Eb5   C5  F5
Is not a way that's meant for me
C5
   Just cause, Just cause, because we're outlaws!

Refrão Final:

F5            Db5              Ab5            Eb5
   I beg to dream and differ from the hollow lies
F5              Db5            Ab5         C5
   This is the dawning of the rest of our lives
F5            Db5              Ab5            Eb5
   I beg to dream and differ from the hollow lies
F5              Db5            Ab5         C5
   This is the dawning of the rest of our lives
                          F5  Db5  Ab5  Eb5
This is our lives on Holiday

(F5  Db5  Ab5  Eb5 )(2x)

(F5  Db5   Eb5  C5  F5)

(F5)
  • 1
  • 2
  • 3
  • 4
  • 5
  • 6
  • 7
  • 8
  • 9
  • 10
  • 11
  • 12
    Acordes para:

      0 comentários

        mostrar mais comentários

        Conseguiu tocar?

        128tocaram0ainda não

        Grave um vídeo tocando Holiday e mande pra gente!

        00:00 / 00:00
        outros vídeos desta música
        repetirqualidadeautomática
        • automática
        Outro vídeos desta música
          Capítulos
          • Início
          • Tocando a música
          • Configuração do Efeito
          • Acordes da Introdução
          • Tocando Introdução
          • Ensinando Ritmo da Introdução
          • Acordes da Primeira Parte
          • Tocando Primeira Parte
          • Ensinando Variação da Primeira Parte
          • Acordes do Refrão
          • Tocando Refrão
          • Ensinando Refrão
          • Tocando Ponte
          • Ensinando Ponte
          • Tocando Solo
          • Ensinando Solo - Parte 1
          • Ensinando Solo - Parte 2
          • Tocando Solo (Lento)
          • Ensinando Base do Solo
          • Tocando Terceira Parte e Final
          • Encerramento
          00:00 / 00:00
          automática
          • automática
          fecharplay/pause subir/descer velocidade
            acordes
            fechar
            OK
            Feedback