Cifra Club

Longview

Green Day

Cifra: Versão 2 (violão e guitarra)
tom: E
Longview
Green Day
Dookie (1994)
Letras: Billie Joe Armstrong
Musica: Green Day
Afinação: meio tom abaixo, afine uma casa para tras

h = hammer-on
p = pull-off
b = bend
/ = slide up
 = slide down
5 = power chord
() = harmonic

Verse Bass 1
G|-------------------------------------9-7-6-7-------------------|
D|------9-7-6-------7-6----4----9-7-6----------------------------|
A|-0h7---------7p5-------5---7-----------------------------------|
E|---------------------------------------------------------------|

Chorus
   D5            B5   A5   E5  (x4)
e|---------------------------------------------------------------|
B|---------------------------------------------------------------|
G|-777777777777------------9-------------------------------------|
D|-777777777777--9----7----9-------------------------------------|
A|-555555555555--9----7----7-------------------------------------|
E|---------------7----5------------------------------------------|

Bridge
   E5   D5 (x4)  B5   A5   E5 (x4)
e|---------------------------------------------------------------|
B|---------------------------------------------------------------|
G|-9----7------------------9-------------------------------------|
D|-9----7--------9----7----9-------------------------------------|
A|-7----5--------9----7----7-------------------------------------|
E|---------------7----5------------------------------------------|

End                             (third time end)
e|----------------------(12)----------------(12)-----------------|
B|-9h10-10-7---9h10--12------------9h10--12----------------------|
G|-9----9--7---9-----------------9-------------------------------|
D|---------------------------------------------------------------|
A|---------------------------------------------------------------|
E|---------------------------------------------------------------|


Order

Drum Intro (Fade in from Chump)
Verse 1 (verse bass 1 x4)
Chorus 1
Verse 2 (verse bass 2 x2, verse bass 1 x2)
Chorus 1
Bridge
Verse 3 (verse bass 2 x2, verse bass 1 x2)
Chorus 2 (double the D5 strums, do other part 8x)
End (fade out)


Lyrics

Sit around and watch the tube, nothing's on
Change the channel for an hour or two
Twiddle my thumbs just for a bit                (Verse 1)
I'm sick of all the same old shit
In a house with unlocked doors
And I'm fuckin lazy

Bite my lip and close my eyes
Take me away to paradise                        (Chorus 1)
I'm so damn bored I'm goin blind
And I smell like shit

Peel me off this Velcro seat and get me movin
I sure as hell can't do it by myself
I'm feelin like a dog in heat                   (Verse 2)
Barred indoors from a summer street
I locked the door to my own cell
And I lost the key

(Chorus 1)

I got no motivation
Where is my motivation                          (Bridge)
No time for my motivation
Smokin's my inspiration

Sit around and watch the phone, no one's callin
Call me pathetic, call me what you will
My mother says to get a job                     (Verse 3)
But she don't like the one she's got
When masturbation's lost it's fun
You're fuckin lazy

Bite my lip and close my eyes
Take me away to paradise
I'm so damn bored I'm goin blind
None of this has to suffice                     (Chorus 2)
Bite my lip and close my eyes
Take me away to paradise
Some say quit or I'll go blind
But it's just a myth
00:00 / 00:00
Outros vídeos desta música
Repetir
Outros vídeos desta música
Composição de Billie Joe Armstrong / Green Day
33.215 exibições
    • ½ Tom
    • A
    • Bb
    • B
    • C
    • Db
    • D
    • Eb
    • E
    • F
    • F#
    • G
    • Ab
  • Adicionar à lista

    0 comentários

    Ver todos os comentários
    00:00 / 00:00

    Cifra Club Pro

    Aproveite o Cifra Club com benefícios exclusivos e sem anúncios
    Cifra Club Pro
    Aproveite o Cifra Club com benefícios exclusivos e sem anúncios
    OK