Cifra Club

Aprenda

Peacemaker

Green Day

Cifra: Versão 2 (violão e guitarra)
Já pensou em usar uma coleção de roupas do Cifra Club? Responda as perguntas abaixo e nos ajude nessa missão! →
tom: A
B5
Well, I've got a fever
A non-believer
I'm in a state of grace
For I'm the caesar    F#5
I'm gonna seize the day
Well, call of the banshee
Hey (x7)
As god as my witness     B5
The infidels are gonna pay

Well, call the assassin
The orgasm
A spasm of love and hate
For what will divide us? F#G
The righteous and the meek
Well, call of the wild
Hey (x7)                                 B5
Death to the girl at the and of the serenade


REFRÃO
F#5
Vendetta, Sweet Vendetta
B5
This beretta of the night
E                   B5
This fire and the desire
F#                             B5
Shots ringing out on a holy parasite

I am a killjoy from detroit
I drink from a well of rage
I feed off the weakness with all my love
Call up the captain
Hey (x7)
Death to the lover that you were dreaming of

This is a stand off
A molotov cocktail
on the house You thought I was a write off
You better think again
Call the peacemaker
Hey (x7)
I'm gonna send you back to the place where it all
began


REFRÃO
F#5
Vendetta, Sweet Vendetta
B5
This beretta of the night
E                   B5
This fire and the desire
F#                             B5
Shots ringing out on a holy parasite

SOLO

Guitarra 1
e|-------------------------------------------------------------------------------|
B|--------------11-9-11-9-11-9-11----9-11-9-11-9-11-------9-12-11-12-11-12-11----|
G|-4---3---4----------------------11----------------11-11---------------------11-|
D|-------------------------------------------------------------------------------|
A|-------------------------------------------------------------------------------|
E|-------------------------------------------------------------------------------|

Guitarra 2        F#m                                         Bm

e|-------------------------------------------------------------------------------|
B|----11-12-11-12-11-12-11-------11-12-11-12-14-15-14-12-11-12-11-12-11-12-11----|
G|-11----------------------11-11----------------------------------------------11-|
D|-------------------------------------------------------------------------------|
A|-------------------------------------------------------------------------------|
E|-------------------------------------------------------------------------------|

                                 E                          Bm

e|---------------------------------------------------------------------------|
B|----9-11-9-11-9-11-9-------12--15-11---------------------------------------|
G|-11------------------11-11-------------------------------------------------|
D|---------------------------------------------------------------------------|
A|---------------------------------------------------------------------------|
E|---------------------------------------------------------------------------|


Bm
Well now the caretaker's the undertaker. Now I'm gonna go out and get the peacemaker
                               F#m
This is the neo St. Valentines Massacre. Well call up the Gaza hey hey. hey hey hey hey hey
                                    Bm
Death to the ones at the end of the serenade
      F#m                                 Bm
Well, death to the ones at the end of the serenade
      F#m                                 Bm
Well, death to the ones at the end of the serenade
      F#m (stop)                                   Bm        (stop) Bm 
Well, death to the ones at the end of the sere-----nade
Composição de Billie Joe Armstrong / Green Day
Colaboração e revisão:
  • Eric Rubens
1.851 exibições
    • ½ Tom
    • A
    • Bb
    • B
    • C
    • Db
    • D
    • Eb
    • E
    • F
    • F#
    • G
    • Ab
  • Adicionar à lista

    0 comentários

    Ver todos os comentários
    00:00 / 00:00
    Outros vídeos desta música
    Repetir Qualidade Automático
    Outros vídeos desta música
    00:00 / 00:00
    Automático

    Cifra Club Pro

    Aproveite o Cifra Club com benefícios exclusivos e sem anúncios
    Cifra Club Pro
    Aproveite o Cifra Club com benefícios exclusivos e sem anúncios
    OK