Cifra Club

She

Green Day

Tab de baixo: Principal
[Introdução]

Parte 1 
G|-0-0--0-0-0--0-0--0-0-0---0-0--0-0-0--0-0-----|
D|----------------------------------------------|
A|----------------------------------------------|
E|----------------------------------------------|

G|-0-0-0----------------------------------------|
D|----------------------------------------------|
A|----------------------------------------------|
E|----------------------------------------------|


[Primeira parte]

She,she screams in silence...

Parte 1 de 2
G|-0-0--0-0-0--0-0--0-0-------------------------|
D|----------------------5h7---------------------|
A|--------------------------5-5--5-5-5--5-5-----|
E|----------------------------------------------|

G|----------------------------------0-0--0-0-0--|
D|----------------------------------------------|
A|-5-5-5-0--3-3--3-3-3--3-3--3-3-3--------------|
E|----------------------------------------------|

G|--0-0--0-0-0-0--------------------------------|
D|----------------------------------------------|
A|----------------------------------------------|
E|----------------------------------------------|

Parte 2 de 2
G|-0-0--0-0-0--0-0--0-0-------------------------|
D|----------------------5h7---------------------|
A|--------------------------5-5--5-5-5--5-5-----|
E|----------------------------------------------|

G|----------------------------------------------|
D|----------------------4h5-5---4h5-5-----------|
A|-5-5-5-0--3-3--3-3-3--------3-------3---------|
E|----------------------------------------------|

G|----------------------------------------------|
D|----------------------------------------------|
A|----------------------------------------------|
E|-3-3-3-3--3-3-3-3--3-3-3-3--3-3-3-3-----------|


[Refrão]

Are you locked up in a world...

Parte 1 de 3 ( 2x )
G|----------------------------------------------|
D|---------------------------------4-5----------|
A|-5-5--5-5-5--5-5--5-5-5-0--3-3-3--------------|
E|-------------------------------------3-3-3----|

G|----------------------------------------------|
D|----------------------------------------------|
A|----------------------------------------------|
E|-3-3-3-3--------------------------------------|

Parte 2 de 3 ( 2x )
G|----------------------------------------------|
D|----------------------------------------------|
A|-3-3-3-3--3-3-3-------------------------------|
E|----------------0--3-3-3-3--3-3-3-3-----------|

Parte 3 de 3
G|----------------------------------------------|
D|----------------------------------------------|
A|-3-3-3-3--3-3-3-------------------------------|
E|----------------0--3-3-3-3--3-3-3-------------|

G|----------------------------------------------|
D|----------------------------------------------|
A|-5--5-5--5-5-5-5--5-5--5-5-5-5----------------|
E|----------------------------------------------|


[Segunda parte]

She, she's figured out…

Parte 1 de 2
G|----------------------------------------------|
D|----------------------------------------------|
A|----------------------2-3-5-5--5-5-5--5-5-----|
E|-3-3--3-3-3--3-3--3-3-------------------------|

G|----------------------------------------------|
D|----------------------------------------------|
A|-5-5-5-0--3-3--3-3-3--3-3--3-3-3-3------------|
E|----------------------------------------------|

G|----------------------------------------------|
D|----------------------------------------------|
A|-------3--------------------------------------|
E|-3-3-3----3-3-3--3-3-3------------------------|

Parte 2 de 2
G|----------------------------------------------|
D|----------------------------------------------|
A|----------------------2-3-5-5--5-5-5--5-5-----|
E|-3-3--3-3-3--3-3--3-3-------------------------|

G|----------------------------------------------|
D|----------------------4h5-5---4h5-5-----------|
A|-5-5-5-0--3-3--3-3-3--------3-------3---------|
E|----------------------------------------------|

G|----------------------------------------------|
D|----------------------------------------------|
A|-------3--------------------------------------|
E|-3-3-3----3-3-3-3--3-3-3-3--------------------|


[Refrão 2]

Are you locked up in a world...

Parte 1 de 3 ( 2x )
G|----------------------------------------------|
D|---------------------------------4-5----------|
A|-5-5--5-5-5--5-5--5-5-5-0--3-3-3--------------|
E|-------------------------------------3-3-3----|

G|----------------------------------------------|
D|----------------------------------------------|
A|----------------------------------------------|
E|-3-3-3-3--------------------------------------|

Parte 2 de 3 ( 2x )
G|----------------------------------------------|
D|----------------------------------------------|
A|-3-3-3-3--3-3-3-------------------------------|
E|----------------0--3-3-3-3--3-3-3-3-----------|

Parte 3 de 3
G|----------------------------------------------|
D|----------------------------------------------|
A|-3-3-3-3--3-3-3-------------------------------|
E|----------------0--3-3-3-3--3-3-3-------------|

G|----------------------------------------------|
D|----------------------------------------------|
A|-5--5-5--5-5-5-5--5-5--5-5-5-5----------------|
E|----------------------------------------------|


[Solo de guitarra]

Parte 1 de 2
G|----------------------------------------------|
D|-------------------------------------7-5-4\---|
A|----------------------2-3-5-5--5-5-5----------|
E|-3-3--3-3-3--3-3--3-3-------------------------|

G|----------------------------------------------|
D|-------------4h5-5---4h5-5--------------------|
A|-3-3--3-3-3--------3-------3-------3----------|
E|-----------------------------3-3-3----3-3-3-3-|

G|----------------------------------------------|
D|----------------------------------------------|
A|----------------------------------------------|
E|-3-3-3-3--------------------------------------|

[Parte 2 de 2
G|----------------------------------------------|
D|---------------------------------------4-5-7--|
A|----------------------2-3-5-5--5-5-5-5--------|
E|-3-3--3-3-3--3-3--3-3-------------------------|

G|----------------------------------------------|
D|-5-4\------------4h5-5---4h5-5----------------|
A|------3-3--3-3-3-------3-------3-------3------|
E|---------------------------------3-3-3--------|

G|----------------------------------------------|
D|----------------------------------------------|
A|----------------------------------------------|
E|-3-3-3-3--3-3-3-3-----------------------------|


[Refrão 3]

Are you locked up in a world...

Parte 1 de 3 ( 2x )
G|----------------------------------------------|
D|---------------------------------4-5----------|
A|-5-5--5-5-5--5-5--5-5-5-0--3-3-3--------------|
E|-------------------------------------3-3-3----|

G|----------------------------------------------|
D|----------------------------------------------|
A|----------------------------------------------|
E|-3-3-3-3--------------------------------------|

Parte 2 de 3 ( 3x )
G|----------------------------------------------|
D|----------------------------------------------|
A|-3-3-3-3--3-3-3-------------------------------|
E|------------------0--3-3-3-3--3-3-3-3---------|

Parte 3 de 3
G|----------------------------------------------|
D|----------------------------------------------|
A|-5-5--5-5-5-5--5-5-5-5--5-5-5-5---------------|
E|---------------------------------3\-----------|
exibições 56.895

0 comentários

mostrar mais comentários

Conseguiu tocar?

13 tocaram 0 ainda não

Grave um vídeo tocando She e mande pra gente!

00:00 / 00:00
outros vídeos desta música
repetir qualidade Automático
Outros vídeos desta música
00:00 / 00:00
Automático
Capítulos
  • Tocando a música
  • Apresentação / Equipamentos
  • Afinação
  • TAB - Introdução
  • TAB - Primeira Parte
  • TAB - Refrão
  • TAB - Segunda Parte
  • TAB - Solo de Guitarra
  • TAB - Refrão 3
  • Encerramento
OK