Cifra Club

Aprenda

Warning

Green Day

Tab de baixo: Principal
Vrese:
G-----------------------------------
D----------0-0-2-4-5-5-4-2-0-0------
A--0-0-2-4---------------------4-2--
E-----------------------------------

Bridge:
G-----------------------
D-----------------------
A-----4----------4------
E--5----5-33-5-5---5-30-




_______________________________________________________
Contribuição: Emerson Malucelli Iurk(emeriurk@hotmail.com)
Composição de Billie Joe Armstrong / Green Day
18.089 exibições

0 comentários

Mostrar mais comentários

Conseguiu tocar?

5 Tocaram 0 Ainda não

Grave um vídeo tocando Warning e mande pra gente!

00:00 / 00:00
outros vídeos desta música
repetir qualidade Automático
Outros vídeos desta música
00:00 / 00:00
Automático

Cifra Club Pro

Aproveite o Cifra Club com benefícios exclusivos e sem anúncios
7 dias grátis
Cifra Club Pro
Aproveite o Cifra Club com benefícios exclusivos e sem anúncios
7 dias grátis
OK