Enviar cifraEntrar

When I Come Around

Green Day

Cifra: Principal
exibições 378.007
Tom: G Afinação: Eb Ab Db Gb Bb Eb
Intro 3x: G5  D5  E5  C5

   G5             D5               E5
Eb|-----------------------------------------
Bb|-----------------------------------------
Gb|----------------------7-------------9----
Db|-------5--------------7-------------9----
Ab|-------5------0-5--5--5----5--7--7--7--x-
Eb|-3--3--3----3----------------------------

   P.M.       . . .  .       .  .  .
    ↓  ↓  ↓    ↓ ↑ ↓  ↓  ↓    ↓  ↑  ↓  ↓  ↓


   C5
Eb|-----------------------------------------
Bb|-----------------------------------------
Gb|-5-----5---------------------------------
Db|-5-----5---------------------------------
Ab|-3-----3---x--0--------------------------
Eb|-----------------------------------------

           P.M.
    ↓     ↓   ↓  ↑


Primeira Parte:
G5   D5               E5  C5
  I heard you crying loud
G5         D5         E5  C5
  All the way across town
             G5                 D5
You've been searching for that someone
          E5         C5
And it's me out on the prowl
    G5       D5
As you sit around feeling
    E5         C5
Sorry for yourself

G5       G5               E5  C5
  Well, don't get lonely now
G5      D5             E5   C5
  And dry your whining eyes
          G5              D5
I'm just roaming for the moment
          E5           C5            G5
Sleazin' my back yard so don't get so uptight
              D5            E5       C5
You've been thinking about ditching me

Primeiro Refrão:
A5                       C5
  No time to search the world around
A5                               C5
  'Cause you know where I'll be found
              ( G5  D5  E5  C5 ) (2x)
  When I come around

Segunda Parte:
G5      D5             E5  C5
  I've heard it all before
G5    D5                  E5  C5
  So don't knock down my door
         G5         D5
  I'm a loser and a user
        E5              C5
  So I don't need no accuser
       G5             D5              E5
  To try and slag me down because I know
          C5
  You're right

G5    D5             E5  C5
  So go do what you like
G5      C5             E5  C5
  Make sure you do it wise
           G5                 D5
  You may find out that your self-doubt
            E5        C5
  Means nothing was ever there
       G5               D5
  You can't go forcing something if
        E5       C5
  It's just not right

Segundo Refrão:
A5                       C5
  No time to search the world around
A5                               C5
  'Cause you know where I'll be found
              ( G5  D5  E5  C5 ) (2x)
  When I come around

Uuuhhh...


Solo 2x: G5  D5  E5  C5
Eb|-------7-------------------------------------------
Bb|-8----------10-----8-----8------8-10-----8-8-------
Gb|----7----7------7-----7-----7-7-------7------7-----
Db|---------------------------------------------------
Ab|---------------------------------------------------
Eb|---------------------------------------------------


Eb|---------------------------------0--0--0--0--0--0--
Bb|-8----8-8----10-----8--7-------3/5--5--5--5--5--5--
Gb|----7-7-7--7--7--7--------7------------------------
Db|---------------------------------------------------
Ab|---------------------------------------------------
Eb|---------------------------------------------------



A5                       C5
  No time to search the world around
A5                               C5
  'Cause you know where I'll be found
                G5  D5  E5  C5
  When I come around
                G5  D5  E5  C5
  When I come around
                G5  D5  E5  C5
  When I come around
                G5  D5  E5  C5
  When I come around
  • 1
  • 2
  • 3
  • 4
  • 5
  • 6
  • 7
  • 8
  • 9
  • 10
  • 11
  • 12
    Acordes para:

      0 comentários

        mostrar mais comentários

        Conseguiu tocar?

        65tocaram0ainda não

        Grave um vídeo tocando When I Come Around e mande pra gente!

        00:00 / 00:00
        outros vídeos desta música
        repetirqualidadeautomática
        • automática
        Outro vídeos desta música
          Capítulos
          • Início
          • Afinação
          • Configuração do Efeito
          • Tocando a música
          • Acordes do Riff Principal
          • Tocando Introdução e Primeira Parte
          • Ensinando Riff Principal
          • Ensinando Variação da Introdução
          • Ensinando Variação da Passagem Para o Refrão e Fin
          • Acordes do Refrão
          • Tocando Refrão
          • Ensinando Refrão
          • Tocando Solo
          • Ensinando Solo
          • Encerramento
          00:00 / 00:00
          automática
          • automática
          3 versões de Tab de baixoexibiçõescontribuições
          1 versão de Tab de bateriaexibiçõescontribuições
          1 versão de Tab de gaitaexibiçõescontribuições
          2 versões de Guitar Proformatodownloadscontribuição
          fecharplay/pause subir/descer velocidade
            acordes
            fechar
            OK
            Feedback