Notificações Amigos pendentes

      Green Day

      When I Come Around

      372.704 exibições
      Tom: G Afinação: Eb Ab Db Gb Bb Eb
      Intro 3x: G5  D5  E5  C5
      
         G5             D5               E5
      Eb|-----------------------------------------
      Bb|-----------------------------------------
      Gb|----------------------7-------------9----
      Db|-------5--------------7-------------9----
      Ab|-------5------0-5--5--5----5--7--7--7--x-
      Eb|-3--3--3----3----------------------------
      
         P.M.       . . .  .       .  .  .
          ↓  ↓  ↓    ↓ ↑ ↓  ↓  ↓    ↓  ↑  ↓  ↓  ↓
      
      
         C5
      Eb|-----------------------------------------
      Bb|-----------------------------------------
      Gb|-5-----5---------------------------------
      Db|-5-----5---------------------------------
      Ab|-3-----3---x--0--------------------------
      Eb|-----------------------------------------
      
                 P.M.
          ↓     ↓   ↓  ↑
      
      
      Primeira Parte:
      G5   D5               E5  C5
        I heard you crying loud
      G5         D5         E5  C5
        All the way across town
                   G5                 D5
      You've been searching for that someone
                E5         C5
      And it's me out on the prowl
          G5       D5
      As you sit around feeling
          E5         C5
      Sorry for yourself
      
      G5       G5               E5  C5
        Well, don't get lonely now
      G5      D5             E5   C5
        And dry your whining eyes
                G5              D5
      I'm just roaming for the moment
                E5           C5            G5
      Sleazin' my back yard so don't get so uptight
                    D5            E5       C5
      You've been thinking about ditching me
      
      Primeiro Refrão:
      A5                       C5
        No time to search the world around
      A5                               C5
        'Cause you know where I'll be found
                    ( G5  D5  E5  C5 ) (2x)
        When I come around
      
      Segunda Parte:
      G5      D5             E5  C5
        I've heard it all before
      G5    D5                  E5  C5
        So don't knock down my door
               G5         D5
        I'm a loser and a user
              E5              C5
        So I don't need no accuser
             G5             D5              E5
        To try and slag me down because I know
                C5
        You're right
      
      G5    D5             E5  C5
        So go do what you like
      G5      C5             E5  C5
        Make sure you do it wise
                 G5                 D5
        You may find out that your self-doubt
                  E5        C5
        Means nothing was ever there
             G5               D5
        You can't go forcing something if
              E5       C5
        It's just not right
      
      Segundo Refrão:
      A5                       C5
        No time to search the world around
      A5                               C5
        'Cause you know where I'll be found
                    ( G5  D5  E5  C5 ) (2x)
        When I come around
      
      Uuuhhh...
      
      
      Solo 2x: G5  D5  E5  C5
      Eb|-------7-------------------------------------------
      Bb|-8----------10-----8-----8------8-10-----8-8-------
      Gb|----7----7------7-----7-----7-7-------7------7-----
      Db|---------------------------------------------------
      Ab|---------------------------------------------------
      Eb|---------------------------------------------------
      
      
      Eb|---------------------------------0--0--0--0--0--0--
      Bb|-8----8-8----10-----8--7-------3/5--5--5--5--5--5--
      Gb|----7-7-7--7--7--7--------7------------------------
      Db|---------------------------------------------------
      Ab|---------------------------------------------------
      Eb|---------------------------------------------------
      
      
      
      A5                       C5
        No time to search the world around
      A5                               C5
        'Cause you know where I'll be found
                      G5  D5  E5  C5
        When I come around
                      G5  D5  E5  C5
        When I come around
                      G5  D5  E5  C5
        When I come around
                      G5  D5  E5  C5
        When I come around
        Composição: Billie Joe Armstrong / Green DayColaboração e revisão:
        • v.inny
        • bernaardo
        • Rota
        • harmonio
        • +7

        Comentários 25

        140 .
        • wagner.welerson wagner.welerson: Em 15/10/2014 18:03

          qual ritmo da musica qual hora que ele fala?

        • igorsox igorsox: Em 03/12/2013 19:50

          muito facil

        • marcelo.pavani.58 marcelo.pavani.58: Em 22/11/2013 18:56

          G-11-------11-----13 | ---11--------
          D------11-------------- | 13------13----9

        • marcelo.pavani.58 marcelo.pavani.58: Em 22/11/2013 18:51

          essa musica e facil mas cara tem um jeito mais facil de tocar o solo
          G-----11------11------13------13---
          D-11-----11------11------11------11

        • Victor Victor: Em 26/04/2013 19:17

          Aula do Vinicius, não tem como ser ruim!

        • Kaz Kaz: Em 06/04/2013 15:16

          essa explicacao do solo somente me cafudiu mais

        • vithorskovsk vithorskovsk: Em 12/01/2013 18:46

          essa musica é um pouco fácilnao axa??
          tem q fazer video aulas de musicas mais dificeis tipo St. Jimmy!!!kkkkkk

        • pcjoearmstrong pcjoearmstrong: Em 07/01/2013 18:53

          eu aprendi assim ..vendo eles tocarem eu ia ouvindo o som da nota e aprendia ...

        • pcjoearmstrong pcjoearmstrong: Em 07/01/2013 18:43

          o cara ensina ainda ensina errado ..kkk ...ér melhor vcs aprenderem sózinhos ..Ganham mais experiência ...vendo videos da musica no youtube

        • pcjoearmstrong pcjoearmstrong: Em 07/01/2013 18:16

          eutoquei essa musica no show de talentos do meu colégio a original ele toca o Mí com o dedo 2 (o dedo do meio ) no nota Sol da corda Si ok?

        140 cancelar
        0:00 / 0:00
        3 versões de baixo exibições contribuição e correção
        1 versão de bateria exibições contribuição e correção
        1 versão de gaita exibições contribuição e correção
        2 versões de Guitar Proformatodownloadscontribuição
        play/pausefechar subir/descer velocidade
        6ª corda E5ª corda A4ª corda D3ª corda G2ª corda B1ª corda E
          acordes
          transcrição verificada v.inny instrutor de guitarra
          publicidade
          fechar
          ok