Cifra Club

Aprenda

When I Come Around

Green Day

Cifra: Versão 4 (violão e guitarra)
Tom: F#
Riff1

No D#5 você da um Toque e em seguida jah da um toque em D#

  F#5    C#5   D#5 D#     B
------------------------------------------------------
------------------7--4--4-4--------------------------
---------6-6-6--8-8--4--4-4---------------------------
--4-4-4--6-6-6--8-8--4--4-4---------------------------
--4-4-4--4-4-4--6-6--2--2-2---------------------------
--2-2-2-----------------------------------------------

Refrão
    Am   B
--------------------------------------------
---------4----------------------------------
-----2---4---------------------------------
-----2---4---------------------------------
-----0---2---------------------------------
-------------------------------------------

Solinho
-------------------------------------------------------
---7---7-9-7-------7---9--7-----7---7-9-7--------------
-----6-------6-6-----6------6-----6-------6-8888888----Enquanto uma faz o solinho a outra 
-------------------------------------------------------faz o riff1
-------------------------------------------------------
-------------------------------------------------------

Ordem:
Intro:3x Riff1
8xRiff1 enquanto ele canta
Refrão2x
2x Riff1
8x Riff1
Refrão2x
Riff1 2x
Solinho
Refrão2x
riff1 4x


Letra:

I heard you crying loud
All the way across town
You've been searching for that someone
And it's me out on the prowl
As you sit around feeling sorry for yourself

Well, don't get lonely now
And dry your whining eyes
I'm just roaming for the moment
Sleazin' my backyard so don't get
So uptight you've been thinking about ditching me

No time to search the world around
Cause you know where I'll be found
When I come around

I've heard it all before
So don't knock down my door
I'm a loser and a user
So I don't need no accuser
To try and slag me down because I know I'm right

So go do what you like
Make sure you do it wise
You may find out that your self-doubt
Means nothing was ever there
You can't go forcing something if it's just not right

No time to search the world around
Cause you know where I'll be found
When I come around

Uuuhhh...

No time to search the world around
Cause you know where I'll be found
When I come around
When I come around
When I come around
When I come around
Composição de Billie Joe Armstrong / Green Day
Colaboração e revisão:
  • ROGÉRIO CAMPOS
  • Luiz bITTENCOURT
  • Gabriel Pace
25.094 exibições
  • Simplificar cifra
    • ½ Tom
    • A
    • Bb
    • B
    • C
    • Db
    • D
    • Eb
    • E
    • F
    • F#
    • G
    • Ab
  • Adicionar à lista

    0 comentários

    Mostrar mais comentários

    Conseguiu tocar?

    1 Tocaram 0 Ainda não

    Grave um vídeo tocando When I Come Around e mande pra gente!

    00:00 / 00:00
    outros vídeos desta música
    repetir qualidade Automático
    Outros vídeos desta música
    00:00 / 00:00
    Automático
    Capítulos
    • Tocando a Música
    • Apresentação / Equipamentos
    • Configurações do Amplificador
    • Pedais Utilizados
    • Dicas da Música
    • Acordes da Introdução e Versos
    • Tocando Introdução e Primeira Parte
    • Ritmo Introdução e Primeira Parte
    • Acordes do Refrão
    • Tocando Primeiro Refrão
    • Ritmo Refrão
    • Tocando Solo
    • Ensinando Solo
    • Encerramento

    Cifra Club Pro

    Aproveite o Cifra Club com benefícios exclusivos e sem anúncios
    7 dias grátis
    Cifra Club Pro
    Aproveite o Cifra Club com benefícios exclusivos e sem anúncios
    7 dias grátis
    OK