Cifra Club

Aprenda

When I Come Around

Green Day

Cifra: Versão 5 (violão e guitarra)
Tom: A
(A intro é igual ao verso sem bateria)

Verso:
     G        D     E    C
-----------------------------------------------------|
-----------------------------------------------------|
---------7-7-7-7---7-7--5-5--------------------------|
-5-5-5-5-----7-7---7-7--5-5--------------------------|
-----5-5-----5-5---9-9--3-3--------------------------|
-----3-3---------------------------------------------|

I heard you crying loud
All the way across town
You've been searching for that someone
And it's me out on the prowl
As you sit around feeling sorry for yourself

Well, don't get lonely now
And dry your whining eyes
I'm just roaming for the moment
Sleazin' my backyard so don't get
So uptight you've been thinking about ditching me

Refrão:
    A5      C5
-----0------0-------------------------------|
-----0------0-------------------------------|
-----2------5-------------------------------|
-----2------5-------------------------------|
-----0------3-------------------------------|
-----0------0-------------------------------|

No time to search the world around
Cause you know where I'll be found
When I come around

Verso:
     G        D     E    C
-----------------------------------------------------|
-----------------------------------------------------|
---------7-7-7-7---7-7--5-5--------------------------|
-5-5-5-5-----7-7---7-7--5-5--------------------------|
-----5-5-----5-5---9-9--3-3--------------------------|
-----3-3---------------------------------------------|

I've heard it all before
So don't knock down my door
I'm a loser and a user
So I don't need no accuser
To try and slag me down because I know I'm right

So go do what you like
Make sure you do it wise
You may find out that your self-doubt
Means nothing was ever there
You can't go forcing something if it's just not right

Refrão:
    A5      C5
-----0------0-------------------------------|
-----0------0-------------------------------|
-----2------5-------------------------------|
-----2------5-------------------------------|
-----0------3-------------------------------|
-----0------0-------------------------------|

No time to search the world around
Cause you know where I'll be found
When I come around

Uuuhhh...
Solinho:
-------------------------------------------------------|
---7---7-9-7-------7---9--7-----7---7-9-7--------------|
-----6-------6-6-----6------6-----6-------6-8888888----|
-------------------------------------------------------|
-------------------------------------------------------|
-------------------------------------------------------|

Refrão:
    A5      C5
-----0------0-------------------------------|
-----2------5-------------------------------|
-----2------5-------------------------------|
-----0------3-------------------------------|
-----0------0-------------------------------|

No time to search the world around
Cause you know where I'll be found
When I come around
When I come around
When I come around
When I come around

Toca o verso até o final...
Viva o cifraclub!!!!
Composição de Billie Joe Armstrong / Green Day
Colaboração e revisão:
  • Bruno Garcia
18.233 exibições
  • Simplificar cifra
    • ½ Tom
    • A
    • Bb
    • B
    • C
    • Db
    • D
    • Eb
    • E
    • F
    • F#
    • G
    • Ab
  • Adicionar à lista

    0 comentários

    Mostrar mais comentários

    Conseguiu tocar?

    0 Tocaram 0 Ainda não

    Grave um vídeo tocando When I Come Around e mande pra gente!

    00:00 / 00:00
    outros vídeos desta música
    repetir qualidade Automático
    Outros vídeos desta música
    00:00 / 00:00
    Automático
    Capítulos
    • Tocando a Música
    • Apresentação / Equipamentos
    • Configurações do Amplificador
    • Pedais Utilizados
    • Dicas da Música
    • Acordes da Introdução e Versos
    • Tocando Introdução e Primeira Parte
    • Ritmo Introdução e Primeira Parte
    • Acordes do Refrão
    • Tocando Primeiro Refrão
    • Ritmo Refrão
    • Tocando Solo
    • Ensinando Solo
    • Encerramento

    Cifra Club Pro

    Aproveite o Cifra Club com benefícios exclusivos e sem anúncios
    7 dias grátis
    Cifra Club Pro
    Aproveite o Cifra Club com benefícios exclusivos e sem anúncios
    7 dias grátis
    OK