Cifra Club

Machine Action

Gruntruck

Cifra: Principal (violão e guitarra)
tom: C
Tabbed by: brian_s
Email: *


INTRO:
e-------------------------------------------|
B-------0---------0---------0---------0-----|
G---------0---------0---------0---------0---| --- 
D-----2---------2---------2---------2-------|    |
A-------------------------------------------|    |
E---0---------0---------0---------0---------|    |
                                                 |  4x
e-------------------------------------------|    |
B-------1---------1---------1---------1-----|    |
G---------0---------0---------0---------0---|    |
D-----2---------2---------2---------2-------| ---
A-------------------------------------------|
E---0---------0---------0---------0---------|

e------------------------------|
B------------------------------|
G------------------------------|   16x
D------3-3-3-3-3-3-3-3p2p0-----|
A--------------------------3---|
E---0--------------------------|

e---------------------------------------|
B---------------------------------------|
G---9---9h10-10p9-------9---9h10-10p9---|
D---------------------------------------|
A---------------------------------------|
E---------------------------------------|

VERSE 1:
e-------------------------------------------|
B-------0---------0---------0---------0-----|
G---------0---------0---------0---------0---| --- 
D-----2---------2---------2---------2-------|    |
A-------------------------------------------|    |
E---0---------0---------0---------0---------|    |
                                                 |   4x
e-------------------------------------------|    |
B-------1---------1---------1---------1-----|    |
G---------0---------0---------0---------0---|    |
D-----2---------2---------2---------2-------| ---
A-------------------------------------------|
E---0---------0---------0---------0---------|

e------------------------------|
B------------------------------|
G------------------------------|   8x
D------3-3-3-3-3-3-3-3p2p0-----|
A--------------------------3---|
E---0--------------------------|

e---------------------------------------------|
B---------------------------------------------|
G---9-9-9-9---9h10--10------9-9-9-9---9h10---|
D--------------------------------------------|
A--------------------------------------------|
E--------------------------------------------|

VERSE 2:
e-------------------------------------------|
B-------0---------0---------0---------0-----|
G---------0---------0---------0---------0---| --- 
D-----2---------2---------2---------2-------|    |
A-------------------------------------------|    |
E---0---------0---------0---------0---------|    |
                                                 |   4x
e-------------------------------------------|    |
B-------1---------1---------1---------1-----|    |
G---------0---------0---------0---------0---|    |
D-----2---------2---------2---------2-------| ---
A-------------------------------------------|
E---0---------0---------0---------0---------|

e------------------|
B------------------|
G---5----4----3----|
D---5----4----3----|  4x
A---3----2----1----|
E------------------|


SOLO:
03:09
e--------------------------------------|
B--------------------------------------|
G---9----9/12------12/10----9-----10---|   2x
D--------------------------------------|
A--------------------------------------|
E--------------------------------------|

e---------------------------------------------------|
B---------------------------------------------------|
G---7/9----9-9-9/10----10-10-10/12----12-12-12/10---| ---
D---------------------------------------------------|    |
A---------------------------------------------------|    |
E---------------------------------------------------|    |
                                                         |   2x
e-----------------------------------------------|        |
B-----------------------------------------------|        | 
G---10-10-10/9----9-9-9/7----7-7-7/9----9-9-9---|        |
D-----------------------------------------------| -------
A-----------------------------------------------|
E-----------------------------------------------|

03:24   PM....................
e---------------------------------|
B---------------------------------|
G---------------------------------|   2x
D---0h2---2-2-2----2-2-2-2/3-/2---|
A---------------------------------|
E---------------------------------|

e------------------------------------------|
B------------------------------------------|
G------------------------------------------|
D---0/2----2-2-2/3----3-3-3/5----5-5-5/3---|
A------------------------------------------|
E------------------------------------------|
                                                 
e--------------------------------------------|
B--------------------------------------------|
G--------------------------------------------|
D---3-3-3/2----2-2-2/0----0-0-0/2----2-2-2---|
A--------------------------------------------|
E--------------------------------------------|
  
    PM..........................      
e---------------------------------|
B---------------------------------|
G---------------------------------|   2x
D---0h2---2-2-2----2-2-2-2/3-/2---|
A---------------------------------|
E---------------------------------|

e------------------------------------------|
B------------------------------------------|
G------------------------------------------|
D---0/2----2-2-2/3----3-3-3/5----5-5-5/3---|
A------------------------------------------|
E------------------------------------------|
                                                 
e--------------------------------------------|
B--------------------------------------------|
G--------------------------------------------|
D---3-3-3/2----2-2-2/0----0-0-0/2----2-2-2---|
A--------------------------------------------|
E--------------------------------------------|

03:40
e------------------------------------------------------------------|
B------------------------------------------------------------------|
G---9---9/12---12/10---9----10--------9---9/12---12/10---9----10---|   4x
D------------------------------------------------------------------|
A------------------------------------------------------------------|
E------------------------------------------------------------------|

VERSE 3:
e-------------------------------------------|
B-------0---------0---------0---------0-----|
G---------0---------0---------0---------0---| --- 
D-----2---------2---------2---------2-------|    |
A-------------------------------------------|    |
E---0---------0---------0---------0---------|    |
                                                 |   4x
e-------------------------------------------|    |
B-------1---------1---------1---------1-----|    |
G---------0---------0---------0---------0---|    |
D-----2---------2---------2---------2-------| ---
A-------------------------------------------|
E---0---------0---------0---------0---------|

e------------------|
B------------------|
G---5----4----3----|
D---5----4----3----|  4x
A---3----2----1----|
E------------------|

e------------------------------|
B------------------------------|
G------------------------------|   16x
D------3-3-3-3-3-3-3-3p2p0-----|
A--------------------------3---|
E---0--------------------------|




.   =  palm mute
/   =  slide
h   =  hammer-on
p   =  pull-off
00:00 / 00:00
Outros vídeos desta música
Repetir
Outros vídeos desta música
Compositor não encontrado.
345 exibições
    • ½ Tom
    • A
    • Bb
    • B
    • C
    • Db
    • D
    • Eb
    • E
    • F
    • F#
    • G
    • Ab
  • Adicionar à lista

    0 comentários

    Ver todos os comentários

    Conseguiu tocar?

    0 Tocaram 0 Ainda não

    Grave um vídeo tocando Machine Action e nos envie!

    Entre para oCifra Club PRO

    Tenha acesso a benefícios exclusivos no App e no Site

    • Chega de anúncios

    • Prioridade de compra em lançamentos

    • Mais recursos no app do Afinador

    • Atendimento Prioritário

    • Descontos nos produtos Cifra Club

    • Ajude a produzir mais conteúdo

    00:00 / 00:00

    Cifra Club Pro

    Aproveite o Cifra Club com benefícios exclusivos e sem anúncios
    Cifra Club Pro
    Aproveite o Cifra Club com benefícios exclusivos e sem anúncios
    OK