Cifra Club

Aprenda

Sueña

Grupo 5

Cifra: Principal (violão e guitarra)
tom: D
intro :
           D                   Bm                  G - A
E|-------------------------------5--------------|
B|--------5----8-7--------5----8---8-7----------|
G|----7-7---7---------7-7---7-------------------|
D|----------------------------------------------|
A|----------------------------------------------|
E|----------------------------------------------|


D                 A
Sueña, cierra tus ojos
          Bm
toma mis manos

y abrazame con fuerza
           A
no me dejes morir

             D
Escucha el silencio
            A7
mirando mis ojos
            Bm
quiero que sepas esta noche

cuanto te amo
              A7
y lo feliz que soy

               G
Quisiera esta noche
              D
robar de tus labios
             Em
un soplo de vida
              A - A7
para mi corazon

             D
Que yo por amarte subiria hasta las nubes
             Bm
y me entregaria por completo
                              G
por que te amo, no me importaria

morir entre tus brazos
             A -A7
por que te amo

             D
Que yo por amarte a ciegas caminaria
                Bm
y fiel te seguiria aun que me sueltes de tu mano
              G
no me importaria morir entre tus brazos
            A -A7
por que te amo


 D                   Bm                  G - A
E|-------------------------------5--------------|
B|--------5----8-7--------5----8---8-7----------|
G|----7-7---7---------7-7---7-------------------|
D|----------------------------------------------|
A|----------------------------------------------|
E|----------------------------------------------|


               G
Quisiera esta noche
              D
robar de tus labios
             Em
un soplo de vida
              A -A7
para mi corazon

             D
Que yo por amarte subiria hasta las nubes
             Bm
y me entregaria por completo
                              G
por que te amo, no me importaria

morir entre tus brazos
            Am A7
por que te amo

             D
Que yo por amarte a ciegas caminaria
                Bm
y fiel te seguiria aun que me sueltes de tu mano
              G
no me importaria morir entre tus brazos
            A
por que te amo....



E|-------------------------------------------------------|
Compositor não encontrado.
    • ½ Tom
    • A
    • Bb
    • B
    • C
    • Db
    • D
    • Eb
    • E
    • F
    • F#
    • G
    • Ab
  • Adicionar à lista

    0 comentários

    Ver todos os comentários

    Conseguiu tocar?

    0 Tocaram 0 Ainda não

    Grave um vídeo tocando Sueña e nos envie!

    00:00 / 00:00
    Outros vídeos desta música
    Repetir Qualidade Automático
    Outros vídeos desta música
    00:00 / 00:00
    Automático

    Cifra Club Pro

    Aproveite o Cifra Club com benefícios exclusivos e sem anúncios
    Cifra Club Pro
    Aproveite o Cifra Club com benefícios exclusivos e sem anúncios
    OK