Cifra Club

Aprenda

Reencontro

Grupo Minuano

Cifra: Principal (violão e guitarra)
tom: G
(intro)  G7M F#m7 D Em A7 D C G A7 D

Nestes meus olhos de olhar tristonho
               Em7
Existe um sonho de te namorar
  G          A7
Só peço não demores tanto
              D
Porque eles podem se cansar

  Am             B7
Cansados vão ficar mais tristes
                      Em
Mas ainda existe um brilho em teu olhar
     G         D
Que se mirares profundamente
      A7           D (bis)
Vai de repente te reencontrar

      A7          F#7
(Menina bonita que se fez distâncias
         Bm          G
Soubesses a importância de ter aqui
                  D (bis)
Nosso reencontro me traz a certeza
        A7          D
Que a tua beleza tive não perdi)

(solo) D Am G Em A G A D C G A D

E|----------
B|----3-----
G|-2-4--4-2-
D|----------
A|----------
E|----------

E|--2---3---5-e|--3---5---7-
B|------------      b------------
G|--2---4---5-      g--4---5---7-
D|------------      d------------
A|------------      a------------
E|------------e|------------

E|---10-10-9-9--7-7--5-5--3--
B|-12-------10---8----7----5-
G|---------------------------
D|---------------------------
A|---------------------------
E|---------------------------

E|------2-----------------
B|-3-3-5------3-5-------3-
G|---------5-5-----4-4-5--
D|------------------------
A|------------------------
E|------------------------

D
Quando fico a esmo num olhar profundo
                  Em7
Eu procuro um mundo pra poder te dar
     G            A7
São meus olhos a encurtar distâncias
                   D
Que carregam ânsias de poder te amar

       Am          B7
Quero que procure em outro lugares
                  Em
Por onde passares um pouco de mim
       G            D
O coração garante não vais encontrar
          A7          D (bis)
A certeza no olhar de te amar assim

      G           D
Nosso reencontro me traz a certeza
        A7          C D G  D G D
Que a tua beleza tive não perdi
Composição de Salvador Lamberty
Colaboração e revisão:
  • jair Junior
  • CRISTIANO MARTINS
7.300 exibições
    • ½ Tom
    • A
    • Bb
    • B
    • C
    • Db
    • D
    • Eb
    • E
    • F
    • F#
    • G
    • Ab
  • Adicionar à lista

    0 comentários

    Ver todos os comentários

    Conseguiu tocar?

    1 Tocaram 0 Ainda não

    Grave um vídeo tocando Reencontro e nos envie!

    00:00 / 00:00
    Outros vídeos desta música
    Repetir Qualidade Automático
    Outros vídeos desta música
    00:00 / 00:00
    Automático

    Cifra Club Pro

    Aproveite o Cifra Club com benefícios exclusivos e sem anúncios
    Cifra Club Pro
    Aproveite o Cifra Club com benefícios exclusivos e sem anúncios
    OK