Cifra Club

Êxtase

Guilherme Arantes

Cifra: Principal (violão e guitarra)
Selo Cifra Club: esta cifra foi revisada para atender aos critérios oficiais da nossa Equipe de Qualidade.
tom: A
[Intro] A  D
        A5  A4/E  A5  A4/E
        D5  D4/A  D5  D4/A
        A5  A4/E  A5  A4/E
        D5  D4/A  D5  D4/A
        A5  A4/E  A5  A4/E
        D5  D4/A  D5  D4/A

[Tab - Dedilhado Intro]

Parte 1 de 2
   A             A
E|-9------9------9------9------|
B|-----10---10-------10---10---|
G|---9---------9---9---------9-|
D|-----------------------------|
A|-0-------------0-------------|
E|-----------------------------|

   A             A
E|-9------9------9------9------|
B|-----10---10-------10---10---|
G|---9---------9---9---------9-|
D|-----------------------------|
A|-0-------------0-------------|
E|-----------------------------|

   D                 D
E|-10-------10-------10--------|
B|-------10----10----------10--|
G|----11----------11----11-----|
D|-0-----------------0---------|
A|-----------------------------|
E|-----------------------------|

            D
E|-10-------10-------10--------|
B|----10----------10----10-----|
G|-------11----11----------11--|
D|----------0------------------|
A|-----------------------------|
E|-----------------------------|

   D
E|-10-------10-----------------|
B|-------10----10--------------|
G|----11----------11-----------|
D|-0---------------------------|
A|-----------------------------|
E|-----------------------------|

Parte 2 de 2
   A5        A4/E
E|-----------------------------|
B|-------------3---3-----------|
G|-2-2-2--2----2---2-----------|
D|-2-2-2--2--2---2-------------|
A|-0-0-0-(0)-------------------|
E|-----------------------------|

   A5        A4/E
E|-----------------------------|
B|-------------3---3-----------|
G|-2-2-2--2----2---2-----------|
D|-2-2-2--2--2---2-------------|
A|-0-0-0-(0)-------------------|
E|-----------------------------|

   D5        D4/A
E|-----------------------------|
B|-------------8---8-----------|
G|-7-7-7--7----7---7-----------|
D|-7-7-7--7--7---7-------------|
A|-5-5-5-(5)-------------------|
E|-----------------------------|

   D5        D4/A
E|-----------------------------|
B|-------------8---8-----------|
G|-7-7-7--7----7-----7---------|
D|-7-7-7--7--7---7-----7-------|
A|-5-5-5-(5)-------------------|
E|-----------------------------|

[Tab - Solo Intro]

Parte 1 de 2
  A5     A4/E   A5     A4/E
E|--------5-------------5------|
B|--2-3-5---0-2---2-3-5---0-2--|
G|-----------------------------|
D|-----------------------------|
A|-----------------------------|
E|-----------------------------|

  D5       D4/A    D5
E|----------10-----------------|
B|--5-7-10-----5-7---5-7-10----|
G|-----------------------------|
D|-----------------------------|
A|-----------------------------|
E|-----------------------------|

   D4/A
E|--10-------------------------|
B|-----5-7---------------------|
G|-----------------------------|
D|-----------------------------|
A|-----------------------------|
E|-----------------------------|

Parte 2 de 2
   A5       A4/E   A5
E|-7-5-------------7-5---------|
B|-----5-3--2-5-2------5-3-----|
G|-----------------------------|
D|-----------------------------|
A|-----------------------------|
E|-----------------------------|

   A4/E
E|-----------------------------|
B|-2-5-2-----------------------|
G|-----------------------------|
D|-----------------------------|
A|-----------------------------|
E|-----------------------------|

   D5          D4/A
E|-15-14-12-10-----------------|
B|--------------10-8-7---------|
G|-----------------------------|
D|-----------------------------|
A|-----------------------------|
E|-----------------------------|

   D5          D4/A
E|-15-14-12-10-----------------|
B|--------------10-8-7---------|
G|-----------------------------|
D|-----------------------------|
A|-----------------------------|
E|-----------------------------|

Observação

Use a [Tab - Solo Intro] como
Acompanhamento da [Primeira Parte]
Da [Segunda Parte] e do [Final]

[Tab - Dedilhado Primeira Parte]

Parte 1 de 2
   A5        A4/E
E|-----------------------------|
B|-------------3---3-----------|
G|-2-2-2--2----2---2-----------|
D|-2-2-2--2--2---2-------------|
A|-0-0-0-(0)-------------------|
E|-----------------------------|

   A5        A4/E
E|-----------------------------|
B|-------------3---3-----------|
G|-2-2-2--2----2---2-----------|
D|-2-2-2--2--2---2-------------|
A|-0-0-0-(0)-------------------|
E|-----------------------------|

Parte 2 de 2
   D5        D4/A
E|-----------------------------|
B|-------------8---8-----------|
G|-7-7-7--7----7---7-----------|
D|-7-7-7--7--7---7-------------|
A|-5-5-5-(5)-------------------|
E|-----------------------------|

   D5        D4/A
E|-----------------------------|
B|-------------8---8-----------|
G|-7-7-7--7----7-----7---------|
D|-7-7-7--7--7---7-----7-------|
A|-5-5-5-(5)-------------------|
E|-----------------------------|

[Primeira Parte]

A5  A4/E          A5
       Eu nem sonhava
 A4/E         D5  D4/A  D5  D4/A
Te amar desse jeito

A5  A4/E       A5
      Hoje nasceu
    A4/E          D5   D4/A  D5  D4/A
Novo  sol no meu peito

A5  A4/E        A5
     Quero acordar
    A4/E            D5  D4/A  D5  D4/A
Te sentindo ao meu lado

A5  A4/E      A5
      Viver o êxtase
A4/E       D5  D4/A  D5  D4/A
  De ser amado

[Tab - Dedilhado Ponte]

Parte 1 de 4
   Bm6
E|-----------------------------|
B|-------7-----------7---------|
G|-----7---7-------7---7-------|
D|---6-------6---6-------6-----|
A|-----------------------------|
E|-7-----------7---------------|

   Bm6
E|-----------------------------|
B|-------7-----------7---------|
G|-----7---7-------7---7-------|
D|---6-------6---6-------6-----|
A|-----------------------------|
E|-7-----------7---------------|

Parte 2 de 4
   G7M         G7M(13)
E|-----------------------------|
B|-------3-----5-----5---------|
G|-----4---4-------4---4-------|
D|---4-------4---4-------4-----|
A|-----------------------------|
E|-3-----------3---------------|

   G7M(13)
E|-----------------------------|
B|-5-----5-----5-----5---------|
G|-----4---4-------4---4-------|
D|---4-------4---4-------4-----|
A|-----------------------------|
E|-3-----------3---------------|

Parte 3 de 4
   C#m7(b5)
E|-----------------------------|
B|-5-----5-----------5---------|
G|-----4---4-------4---4-------|
D|---5-------5---5-------5-----|
A|-4-----------4---------------|
E|-----------------------------|

   F#7(4)      F#7
E|-----------------------------|
B|-2-----2-----2-----2---------|
G|-----4---4-------3---3-------|
D|---2-------2---2-------2-----|
A|-----------------------------|
E|-2-----------2---------------|

Parte 4 de 4
   Bm
E|-----------------------------|
B|-------3-----------3---------|
G|-----4---4-------4---4-------|
D|---4-------4---4-------4-----|
A|-2-----------2---------------|
E|-----------------------------|

   G7M
E|-----------------------------|
B|-------3-----------3---------|
G|-----4---4-------4---4-------|
D|---4-------4---4-------4-----|
A|-----------------------------|
E|-3-----------3---------------|

[Ponte]

Bm6
   Espero que a música
               G7M  G7M(13)
Que eu canto ago___ra
C#m7(b5)             F#7(4)
        Possa expressar  o meu
 F#7     Bm  G7M
Súbito amor

[Tab - Dedilhado Segunda Parte]

Parte 1 de 2
   A5        A4/E
E|-----------------------------|
B|-------------3---3-----------|
G|-2-2-2--2----2---2-----------|
D|-2-2-2--2--2---2-------------|
A|-0-0-0-(0)-------------------|
E|-----------------------------|

   A5        A4/E
E|-----------------------------|
B|-------------3---3-----------|
G|-2-2-2--2----2---2-----------|
D|-2-2-2--2--2---2-------------|
A|-0-0-0-(0)-------------------|
E|-----------------------------|

Parte 2 de 2
   D5        D4/A
E|-----------------------------|
B|-------------8---8-----------|
G|-7-7-7--7----7---7-----------|
D|-7-7-7--7--7---7-------------|
A|-5-5-5-(5)-------------------|
E|-----------------------------|

   D5        D4/A
E|-----------------------------|
B|-------------8---8-----------|
G|-7-7-7--7----7-----7---------|
D|-7-7-7--7--7---7-----7-------|
A|-5-5-5-(5)-------------------|
E|-----------------------------|

[Segunda Parte]

A5  A4/E        A5
      Com sua ajuda
  A4/E         D5  D4/A  D5  D4/A
Tranquila e serena

A5  A4/E        A5
      Vou aprendendo
  A4/E           D5  D4/A  D5  D4/A
Que amar vale a pena

A5  A4/E          A5
     Que essa amizade é
   A4/E     D5   D4/A  D5  D4/A
Tão gratificante

A5  A4/E        A5
     Que esse diálogo
A4/E          D5   D4/A  D5  D4/A
É muito importante

[Tab - Dedilhado Ponte]

Parte 1 de 4
   Bm6
E|-----------------------------|
B|-------7-----------7---------|
G|-----7---7-------7---7-------|
D|---6-------6---6-------6-----|
A|-----------------------------|
E|-7-----------7---------------|

   Bm6
E|-----------------------------|
B|-------7-----------7---------|
G|-----7---7-------7---7-------|
D|---6-------6---6-------6-----|
A|-----------------------------|
E|-7-----------7---------------|

Parte 2 de 4
   G7M         G7M(13)
E|-----------------------------|
B|-------3-----5-----5---------|
G|-----4---4-------4---4-------|
D|---4-------4---4-------4-----|
A|-----------------------------|
E|-3-----------3---------------|

   G7M(13)
E|-----------------------------|
B|-5-----5-----5-----5---------|
G|-----4---4-------4---4-------|
D|---4-------4---4-------4-----|
A|-----------------------------|
E|-3-----------3---------------|

Parte 3 de 4
   C#m7(b5)
E|-----------------------------|
B|-5-----5-----------5---------|
G|-----4---4-------4---4-------|
D|---5-------5---5-------5-----|
A|-4-----------4---------------|
E|-----------------------------|

   F#7(4)      F#7
E|-----------------------------|
B|-2-----2-----2-----2---------|
G|-----4---4-------3---3-------|
D|---2-------2---2-------2-----|
A|-----------------------------|
E|-2-----------2---------------|

Parte 4 de 4
   Bm
E|-----------------------------|
B|-------3-----------3---------|
G|-----4---4-------4---4-------|
D|---4-------4---4-------4-----|
A|-2-----------2---------------|
E|-----------------------------|

   G7M
E|-----------------------------|
B|-------3-----------3---------|
G|-----4---4-------4---4-------|
D|---4-------4---4-------4-----|
A|-----------------------------|
E|-3-----------3---------------|

[Ponte]

Bm6
   Espero que a música
               G7M  G7M(13)
Que eu canto ago___ra
C#m7(b5)             F#7(4)
        Possa expressar  o meu
 F#7     Bm  G7M
Súbito amor

[Tab - Dedilhado Final]

Parte 1 de 2
   A5        A4/E
E|-----------------------------|
B|-------------3---3-----------|
G|-2-2-2--2----2---2-----------|
D|-2-2-2--2--2---2-------------|
A|-0-0-0-(0)-------------------|
E|-----------------------------|

   A5        A4/E
E|-----------------------------|
B|-------------3---3-----------|
G|-2-2-2--2----2---2-----------|
D|-2-2-2--2--2---2-------------|
A|-0-0-0-(0)-------------------|
E|-----------------------------|

Parte 2 de 2
   D5        D4/A
E|-----------------------------|
B|-------------8---8-----------|
G|-7-7-7--7----7---7-----------|
D|-7-7-7--7--7---7-------------|
A|-5-5-5-(5)-------------------|
E|-----------------------------|

   D5        D4/A
E|-----------------------------|
B|-------------8---8-----------|
G|-7-7-7--7----7-----7---------|
D|-7-7-7--7--7---7-----7-------|
A|-5-5-5-(5)-------------------|
E|-----------------------------|

[Final]

A5  A4/E          A5
       Eu nem sonhava
 A4/E          D5   D4/A  D5  D4/A
Te amar desse jeito

A5  A4/E          A5
       Eu nem sonhava
 A4/E          D5   D4/A  D5  D4/A
Te amar desse jeito

A5  A4/E          A5
       Eu nem sonhava
 A4/E          D5   D4/A  D5  D4/A
Te amar desse jeito

A5  A4/E          A5
       Eu nem sonhava
 A4/E          D5   D4/A  D5  D4/A
Te amar desse jeito

A5  A4/E          A5
       Eu nem sonhava
 A4/E          D5   D4/A  D5  D4/A
Te amar desse jeito
00:00 / 00:00
Outros vídeos desta música
Repetir
Outros vídeos desta música
161.488 exibições
    • ½ Tom
    • A
    • Bb
    • B
    • C
    • Db
    • D
    • Eb
    • E
    • F
    • F#
    • G
    • Ab
  • Adicionar à lista

Afinação da cifra

Afinador online

    0 comentários

    Ver todos os comentários

    Entre para o Cifra Club PRO

    Tenha acesso a benefícios exclusivos no App e no Site

    • Chega de anúncios

    • Mais recursos no app do Afinador

    • Atendimento Prioritário

    • Aumente seu limite de lista

    • Ajude a produzir mais conteúdo

    00:00 / 00:00

    Cifra Club Pro

    Aproveite o Cifra Club com benefícios exclusivos e sem anúncios
    Cifra Club Pro
    Aproveite o Cifra Club com benefícios exclusivos e sem anúncios
    OK