Cifra Club

Aprenda

Double Talkin' Jive

Guns N' Roses

Cifra: Versão 2 (violão e guitarra)
tom: C
           E
   Found a head and an arm in the garbage can
   Don't know why I'm here
   Livin' on the run for, oh, so long
   I gotta go collect
    C
   Double talkin' jive
            B
   Get the money, motherfucker
             E
   'Cause I got, no more patience
    C                             B
   Double talkin' - I got (lies) -
          E
   No more patience, man

    E
   Back in town and all new friends
   They sayin' how ya been?
   Fucked up and out to place
   That's how I felt back then

    C
   Double talkin' jive
            B
   Get the money, motherfucker
             E
   'Cause I got no more patience
     C                            B
   Double talkin' - I got (lies) -
          E
   No more patience, man
                            (F G F E)15x
   You dig what I'm sayin'?


Main  riff:

|------------------|---------------------------------------|
|------------------|---------------------------------------| 
|------------------|---------------------------------------|
|------2-----2---2-|----------------------2----------------|4x
|------2-----2---2-|---------0--2--0------2----------------|
|---0-----x----x---|-x--0--3-----------3-------------------|

|------------------|-------------------------------|---------------------|-------------------|
|------------------|-------------------------------|---------------------|-------------------| 
|------------------|-------------------------------|---------------------|-------------------|
|------2-----2---2-|---------------------2---------|----2--------2-----2-|-------------------|
|------2-----2---2-|--------0--2--0------2---------|----2--------2-----2-|----------2--0-----|
|---0-----x----x---|-x--0--3-----------3-----------|-0-----0---0----0----|--0--2--0------3--0|

                                            Double talkin'jive...
|-----------------------|-------------------|----------|----|
|-----------------------|-------------------|----------|----|
|-----------------------|-------------------|----------|----|
|------2--------2-----2-|-------------------|5-5-5-5---|--4-|
|------2--------2-----2-|----------2--0-----|3-3-3-3---|--2-|
|2--0-----0---0----0----|--0--2--0------3--0|----------|----|

volta para o riff inicial...

Main Solo:

----------------------------------------------------------------------------
----------------------------------------------H-P-----H---------------------
-----------1--------1-----H-P----4~~~~~-/-7-5-7-5--4-5~~~~------------------
----3~~~-----3~~~-----3-2-3-2-----------------------------------------------
------------------------------2---------------------------------------------
----------------------------------------------------------------------------

------------------H-P-----H-----------------------H--P---------H------------
--8--6-5-6--/-8-6-8-6--5-6----/-12--/-15~~~-13--15-13----12-13--------------
5---------------------------4-----------------------------------------------
----------------------------------------------------------------------------
----------------------------------------------------------------------------
----------------------------------------------------------------------------
                 H[[1]]            H  P
---15--13-13-12-13----13-12~~~-12-13-1210--H--------------------------------
13-----------------------------------------12-------------------------------
----------------------------------------------------------------------------
----------------------------------------------------------------------------
----------------------------------------------------------------------------
----------------------------------------------------------------------------
                                                           [[1/2]]
---H-P-----------------------------------------[[1]]------19------19~~~-----
8-12-8--H--P--------H-P-----------------------18----18-17-------------------
-------11-10-----9-10-9---1210---/14~~~--/17--------------------------------
----------------------------------------------------------------------------
----------------------------------------------------------------------------
----------------------------------------------------------------------------
  [[1]]
-20---20~~------------20-19-20------------[[1/2]]-----19-18-19--------------
------------18-17-18------------18-17-18-17-----17~~------------------------
----------------------------------------------------------------------------
----------------------------------------------------------------------------
----------------------------------------------------------------------------
----------------------------------------------------------------------------
                 rake
---19----19--------x--------------------------------------------------------
17----17----17------x--------[[1]]------------------------------------------
---------------------x-9-12-10----10(10)(10)~~~--12--10--12--10-------------
----------------------------------------------------------------------------
----------------------------------------------------------------------------
----------------------------------------------------------------------------

----------------------------------------------------------------------------
----------------------------------------------------------------------------
x-x-10 9-(9)-(9)~~~--4-(4)-(4)-(4)~~~---------------------------------------
---------------------------------------6-(6)-(6)~~~-2-(2)-(2)~~~--2-/-3-----
----------------------------------------------------------------------------
----------------------------------------------------------------------------

--------------------------------------------7~~~~---------------------------
----------------3-/-6~~~--5-6-5-6-5-6---------------------------------------
-------2--3--5------------------------6--4----------------------------------
-3--5-----------------------------------------------------------------------
----------------------------------------------------------------------------
----------------------------------------------------------------------------

Acoustic riff:

-----------1---------------------1---------------------1--------------------1-
--------1-----1-----1---------1-----1-----1---------1-----1-----1--------1----
-----2-----------2---------2-----------2---------2-----------2--------2-------
--3---------------------3---------------------3--------------------3----------
------------------------------------------------------------------------------
------------------------------------------------------------------------------

--3--1-----------0---------------------0--------------------0-----------------
--3--1--------0-----0-----0---------0-----0-----0--------0-----0-----0--------
--4--2-----1-----------1---------1-----------1---------1---------1------------
--5--3--2-------------------------2---------------------2-----------------2---
------------------------------------------------------------------------------

--------0------------
-----0-----0-----0---
--1-----------1------
---------------------
---------------------
Notes:[[x]] - x step bend~~~   - vibratoH     - Hammer onP     - Pull off/ 
            - Slide(x)   - Strike note while last one still ringing
Composição de Izzy Stradlin
Colaboração e revisão:
  • Luiz Camilotti
  • heldson chagas
37.015 exibições
    • ½ Tom
    • A
    • Bb
    • B
    • C
    • Db
    • D
    • Eb
    • E
    • F
    • F#
    • G
    • Ab
  • Adicionar à lista

    0 comentários

    Ver todos os comentários

    Conseguiu tocar?

    0 Tocaram 0 Ainda não

    Grave um vídeo tocando Double Talkin' Jive e nos envie!

    00:00 / 00:00
    outros vídeos desta música
    repetir qualidade Automático
    Outros vídeos desta música
    00:00 / 00:00
    Automático

    Cifra Club Pro

    Aproveite o Cifra Club com benefícios exclusivos e sem anúncios
    Cifra Club Pro
    Aproveite o Cifra Club com benefícios exclusivos e sem anúncios
    OK