Enviar cifraEntrar

It's So Easy

Guns N' Roses

Cifra: Principal
exibições 115.473
Tom: G
Tunning:eb,Bb,Gb,Db,Ab,Eb

 Intro: distorted with the Intro Bass

|------------------------|
|------------------------|
|------------------------| Play it 3x
|--9xxx9xxx9x9x99x99x99x-|
|--7xxx7xxx7x7x77x77x77x-|
|------------------------|


 Verse: Guitars 1 & 2

   Bb5  G5   E5     (E5)
|-------------------------------|
|-------------------------------|
|-------------------xxx9--x9x9--|
|--8----5----2------xxx9--x9x9--|   4x
|--8----5----2------xxx7--x7x7--|
|--6----3----0------------------|


 Chorus:

Guitar 1

   A5
|---------------------------------|
|---------------------------------|
|----------------xxx9x9-x9--------|
|-77-3-7-8-------xxx9x9-x9--------| 4x
|-77-5-7-8-------xxx7x7-x7--------|
|-55-5-5-6------------------------|


|---------------------------------|
|---------------------------------|
|--1414-12-1415-15p14p12----------|
|--1414-12-1415--------------14~~-| 4x
|----------------------------14~~-|
|----------------------------12~~-|


Play this folowed by the chorus 2 times...


   D5   A5  G5   E5
|------------------|
|------------------|
|-7-7--------------|
|-7-7--7----5----2-|
|-5-5--7----5----2-|
|------5----3----0-| 4x


 Riff 1: (2x)

    F#5                        G5
|--------------------------|--------------------------|
|--------------------------|--------------------------|
|--------------------------|--------------------------|
|--------0--------0--------|--------0-----0-----------|
|-----0--------0-----0-----|-----2------2------2------|
|--2--------2-----2--------|--3-------3------3--------|


    B5                         A5
|--------------------------|--------------------------|
|--------------------------|--------------------------|
|--------0-------0---------|--------0-------0---------|
|-----4-------4--------4---|-----2-------2----------2-|
|--2-------2--------2------|--0-------0----------0----|
|--------------------------|--------------------------|


 Than do it:
  Guitar 1:

|---------------------|
|---------------------|
|--9xxx9x9x9xxx9xx9---|
|--9xxx9x9x9xxx9xx9---| 3x
|--7xxx7x7x7xxx7xx7---|
|---------------------|


Guitar 2:

|---------------------|
|---------------------|
|-9xx----99xx--------|
|-9xx----99xx---------| 3x
|-7xx7^7^77xx7^7^-----|
|---------------------|


                                       Solo 1:
transcription:
fb: full bend
hb: half bend
 ~: tremolo
 r: release bend
 =: let ring
 h: hammer on
 p: pull off
lb: long & ''lazzy'' bend
 ^: intense tremolo
 s: slide


|---------------------------------12---------------------------------------|
|-17fb-(17)^^^--17ffb--15==fb-(15)--1512-----------------------------------|
|-----------------^---------------------14fb~~-14-12h14p12~----------------|
|-----------------^-----------------------------------------14~14~~---12-14|
|-----------|veryhardbend|-------------------------------------------------|
|--------------------------------------------------------------------------|


|----------------------------------------------------------------|
|-----12--12--12----------------15fb~-15fb-(15)(15)~~~------17fb-|
|-1214--14--14--14-12-14-12~~~-------------------------12--------|
|-----------------------------12-------------------------14------|
|----------------------------------------------------------------|
|----------------------------------------------------------------|


 Verse: Guitars 1 & 2

   Bb5  G5   E5     (E5)
|-------------------------------|
|-------------------------------|
|-------------------xxx9--x9x9--|
|--8----5----2------xxx9--x9x9--|   4x
|--8----5----2------xxx7--x7x7--|
|--6----3----0------------------|


 Chorus:

Guitar 1

   A5
|---------------------------------|
|---------------------------------|
|----------------xxx9x9-x9--------|
|-77-3-7-8-------xxx9x9-x9--------| 4x
|-77-5-7-8-------xxx7x7-x7--------|
|-55-5-5-6------------------------|


|---------------------------------|
|---------------------------------|
|--1414-12-1415-15p14p12----------|
|--1414-12-1415--------------14~~-| 4x
|----------------------------14~~-|
|----------------------------12~~-|


 Riff 1: (2x)

    F#5                        G5
|--------------------------|--------------------------|
|--------------------------|--------------------------|
|--------------------------|--------------------------|
|--------0--------0--------|--------0-----0-----------|
|-----0--------0-----0-----|-----2------2------2------|
|--2--------2-----2--------|--3-------3------3--------|


    B5                         A5
|--------------------------|--------------------------|
|--------------------------|--------------------------|
|--------0-------0---------|--------0-------0---------|
|-----4-------4--------4---|-----2-------2----------2-|
|--2-------2--------2------|--0-------0----------0----|
|--------------------------|--------------------------|

(F#5, G5, B5, A5) power chords

 Solo Final: time 2:42


|-15--12~--------------------------------------------------------------------------------------|
|-------------15fb~(15)~(15)~~~----------------------------------------------------------------|
|-------------14fb~(14)~(14)~~~---------457---------------------------------------------------|
|-------------x--------------------7fbr------7rp5----------------------------------------------|
|-------------x-------------------------------------7~~7~~----------------7^^^-5hb----(7)~-----|
|----------(rake)-----------------------------------ARTARM------------5lb-AH--------5-----------|

                      It´s so easy...                  ...so fuckin easy...   ...its so easy...


|--------------------------------------------------------------------------------7h8h10p8------8~~10~~|
|-----------------------------------------------x--------8~~------xx8fb-----10fb~~~~~~~~(10)r---------|
|----------------------------------------------7x7^------7~~------------------------------------------|
|--------5~~-----xx-------------7h9p755h7p5-9~--------------------------------------------------------|
|-5hb-7~----(7)--xx--5hb--7~--------------------------------------------------------------------------|
|-----------------------------------------------------------------------------------------------------|

            ...so fuck easy...                     ...Its so easy...                     ...so fuckin easy,,,


|10-13~1212h13p12p1010~~-----------10~~-------------------------------|
|-----------------------12hbr-10~~~----10~--15p13p12--12--------------|
|---------------------------------------------------14----------------|
|--------------------------------------------------------14hb---------|
|------------------------------------------------------------14^------|
|---------------------------------------------------------------15hb~-|

                ...I´ts so easy~~~~~~...-                  ...Its so easy...
    Riff 2:

Guitar 1:

|-----------------------------|
|-----------------------------|
|-2-0----------------x9x-9x9=-|
|-----2-0------------x9x-9x9=-| 3x
|---------2-0--------x7x-7x7=-|
|-------------3-0-------------|

                   _^_

                  |P.M.|


|---------------------------------|
|---------------------------------|
|-2-0---------------------9hb~----|
|-----2-0-----------------9hb~----| 1x
|---------2-0-------------7hb~----|
|-------------3-0-----------------|

    ...yeah...
Guitar 2:


|------------------------10lb---------------------------------------12--15fb----|
|------------------------10lb---------------------------15fbrp12-15-------------|
|-2-0-------------------------------2-0-----------------------------------------|
|-----2-0-------------------------------2-0-------------------------------------|
|---------2-0-------------------------------2-0---------------------------------|
|-------------3-0--------------------------------3-0----------------------------|

                  ...I'ts so easy...                    ...so fuckin easy~~~...


|----------------------15~~-1512h15p12-------------------------------------------------|
|----------------------14fb-----------1512h15p12---------------------------------------|
|-2-0-------------------------------------------1412h14p12------------------------9hb~-|
|-----2-0-------------------------------------------------1412h14p12--------------9hb~-|
|---------2-0-------------------------------------------------------1414p1214AH---7hb~-|
|-------------3-0------------------------------------------------------15--------------|

                   ...I'ts so easy...                                          ...Yeah!!!
  • 1
  • 2
  • 3
  • 4
  • 5
  • 6
  • 7
  • 8
  • 9
  • 10
  • 11
  • 12
    Acordes para:
      Composição: Guns N' Roses / West ArkeenColaboração e revisão:
      • Guilherme
      • Iguana

      0 comentários

        mostrar mais comentários

        Conseguiu tocar?

        16tocaram0ainda não

        Grave um vídeo tocando It's So Easy e mande pra gente!

        00:00 / 00:00
        outros vídeos desta música
        repetirqualidadeautomática
        • automática
        Outro vídeos desta música
          00:00 / 00:00
          automática
          • automática
          Acordes para:violão e guitarra
          dificuldadeexibiçõescontribuições
          1 versão de Tab de bateriaexibiçõescontribuições
          fecharplay/pause subir/descer velocidade
            acordes
            fechar
            OK
            Feedback