Notificações Amigos pendentes

      Guns N' Roses

      Patience

      2.755.270 exibições
      Tom: C Afinação: Eb Ab Db Gb Bb Eb
      Intro:  C  G/B  A  D  (2x)
              C  G  C  Em  C  G  D
      (Violão 1)
      
      
          C
      E|------0-----------------------------------|
      B|--------2---------3p1---0h1---------------|
      G|--0-0-----0-0-----0---0-0---0-0-----------|
      D|--2-2-----2-2-----2---2-2---2-2-0---------|
      A|--3-3-----3-3-----3---3-----3-3-----------|
      E|------------------------------------------|
      
      
         G/B
      E|------------------------------------------|
      B|--------0----------1p0--------------------|
      G|------0---0--------------2p0--------------|
      D|----0-------0------------------2p0--------|
      A|--2-----------2--------2-----2------------|
      E|------------------------------------------|
      
      
          A
      E|------------------------------------------|
      B|----2------------4\3----0h2--2------------|
      G|------2---2------2------0h2--2--2-2-------|
      D|--------2---2----2------2----2--2-2-------|
      A|--0-----------0------0----------0-0-------|
      E|------------------------------------------|
      
      
          D
      E|----2-----2------3p2----0-----2-----------|
      B|------3-----3----3---3--3--3--3-----------|
      G|--------2-----2--2---2--2--2--2-----------|
      D|--0--------------0---0-----0--------------|
      A|------------------------------------------|
      E|------------------------------------------|
      
      
                C
      E|--------0---------------------------------|
      B|----------1---1---------3p1---0h1---------|
      G|------------0---0-------0---0-0---0-0-----|
      D|------------------2-----2---2-2---2-2-0---|
      A|--0-2-3-----------------3---3-----3-3-----|
      E|------------------------------------------|
      
      
         G/B
      E|------------------------------------------|
      B|----0--------------1p0--------------------|
      G|------0---0--------------2p0--------------|
      D|--------0---0------------------2p0--------|
      A|--2-----------2--------2-----2------------|
      E|------------------------------------------|
      
      
          A
      E|------------------------------------------|
      B|----2------------3\2----0h2--2------------|
      G|------2---2------2------0h2--2--2-2-------|
      D|--------2---2----2------2----2--2-2-------|
      A|--0-----------0------0----------0-0-------|
      E|------------------------------------------|
      
      
          D
      E|----2---------------3p2----0h2--2--2--2---|
      B|------3---3---------3---3--3----3--3--3---|
      G|--------2---2-------2---2--0h2--2--2--2---|
      D|--0-----------0-----0---0-------0--0--0---|
      A|------------------------------------------|
      E|------------------------------------------|
      
      
      (Violão 2)
      
      Intro: C/G  G  A  D
      
      Solo:
      
      E|--------------10-------------------7-8-9-10--------|
      B|-----8-8-10b12--12r10-8-10-8-10b11----------10b12r-|
      G|-7/9-----------------------------------------------|
      D|---------------------------------------------------|
      A|---------------------------------------------------|
      E|---------------------------------------------------|
      
      
      E|---------------------7/8/9-----10----8----7----7p5-|
      B|10b12r10--8--10p8-10-------------------------------|
      G|---------------------7/8/9--/11---/9--/7-----7-----|
      D|---------------------------------------------------|
      A|---------------------------------------------------|
      E|---------------------------------------------------|
      
      
      Dedilhado: C  G  Em  D
      
      
         C         G         C
      E|-------0---------3---------0-------------|
      B|-----1--1------3---3-----1---1-----------|
      G|---0---------0---------0-----------------|
      D|-----------------------------------------|
      A|-3-------------------3-------------------|
      E|-----------3-------------------3-2-------|
      
      
         Em         C         G         D
      E|------------------0---------3---------2--|
      B|--------0-------1---1-----3---3-----3----|
      G|----------0---0---------0---------2------|
      D|-----2--------------------------0--------|
      A|---2--------3----------------------------|
      E|-0--------------------3------------------|
      
      
      
      Primeira Parte:
      C
        Shed a tear cause I'm missing you
      G/B
          I'm still alright to smile
      A                               D
        Girl I think about you every day now
      
      C
        Was a time when I wasn't sure
              G/B
      But you     set my mind at easy
      A                                 D
        There is no doubt you're in my heart now
      
          C
      E|------------------------------------------|
      B|--------1-----------3p1---0h1-------------|
      G|------0---0---------0---0-0---0-0---------|
      D|----2-------2-------2---2-2---2-2-0-------|
      A|--3-----------3-----3---3-----3-3---------|
      E|------------------------------------------|
      
      
         G/B
      E|------------------------------------------|
      B|----0--------------1p0--------------------|
      G|------0---0--------------2p0--------------|
      D|--------0---0------------------2p0--------|
      A|--2-----------2--------2-----2------------|
      E|------------------------------------------|
      
      
          A
      E|------------------------------------------|
      B|----2------------3\2----0h2--2------------|
      G|------2---2------2------0h2--2--2-2-------|
      D|--------2---2----2------2----2--2-2-------|
      A|--0-----------0------0----------0-0-------|
      E|------------------------------------------|
      
      
          D
      E|--------0--2--------3p2----0h2--2--2--2---|
      B|------3----3--------3---3--3----3--3--3---|
      G|----2------2--------2---2--0h2--2--2--2---|
      D|--0--------0--0-----0---0-------0--0--0---|
      A|------------------------------------------|
      E|------------------------------------------|
      
      
      (Violão 2)
      
      
         C                           G
      E|----------------------------------3------|
      B|-------1-----1-------------------3-3-----|
      G|-----0---0-0---0-----0---------0---------|
      D|---2-------------2-----------------------|
      A|-3-----------------3---2-----------------|
      E|-------------------------5br-3-----------|
      
      
         A
      E|-------5---------5-----------------------|
      B|---------5---------5---5-7-8-7-5-7-------|
      G|-----6---------6-----7-------------------|
      D|---7---------7---------------------------|
      A|-0---------0-----------------------------|
      E|-----------------------------------------|
      
      
      
      Refrão:
      C               G
        Said, woman, take it slow
                 C               Em
      And it'll work itself out fine
      C               G
      All we need is just a little
       (D  D4(9)  D  D4  D  D4(9)  D)
      Patience
      
      C               G
        Said, sugar, make it slow
                 C             Em
      And we'll come together fine
      C               G
      All we need is just a little
      ( D  D4(9)  D  D4  D  D4(9)  D ) (4x)
       Patience
      Patience...
      (Violão 2)
      
         C                           G
      E|----------------------------------3------
      B|----1--------1-------------------3-3-----
      G|----0----0-----0-----0---------0---------
      D|----2------------2-----------------------
      A|----3--------------3---2-----------------
      E|-------------------------5br-3-----------
      
      
      E|-----------------------------------------
      B|-----------------------------------------
      G|---0-----0-----0---0-----0----0----------
      D|-----5-----5---------5-----5-------------
      A|-0-----0-----0---0-----0-----0-----------
      E|-----------------------------------------
      
      
      E|-----------------------------------------
      B|-----------------------------------------
      G|-----0---0-------------------------------
      D|---7---4--4------------------------------
      A|-5----------7-5-7/9-7-----5--------------
      E|----------------------7-5----------------
      
      
         C                       G
      E|---0-----0-----0-----0-------0-----0-----
      B|-----1-----1-----1-----1----3-3---3-3----
      G|-------0-----------0-------0-----0-------
      D|-----------------------------------------
      A|-3-----------3---------------------------
      E|-------------------------3------3--------
      
      
         A
      E|-----0------0----2---2-------------------
      B|----2-2----2-2----3---3----5----3--------
      G|---2------2--------2---------------------
      D|--2------2-----0--------/5---/4----------
      A|-0------0--------------------------------
      E|-----------------------------------------
      
      
      
      Segunda Parte:
      C
        I sit here on the stairs
                G/B
      Cause I'd     rather be alone
         A                                D
      If I can't have you right now I'll wait dear
      
      C
        Sometimes I get so tense
             G/B
      But I can't speed up the time
           A
      But you know love
                                    D
      There's one more thing to consider
      
      Refrão:
      C             G
        Said woman take it slow
            C                  Em
      And things will be just fine
       C                G
      You and I'll just use a little
      ( D  D4(9)  D  D4  D  D4(9)  D )
       Patience
      C             G
        Said sugar take the time
                 C                   Em
      Cause the lights are shining bright
       C            G
      You and I've got what it takes to
      ( D  D4(9)  D  D4  D  D4(9)  D ) (4x)
       Make it
      
      We won't fake it
      Oh, I'll never break it
      Cause I can't take it
      
      Base Solo: C  G  C  Em  C  G
                 D  D4(9)  D  D4  D  D4(9)  D
                 C  G  C  Em  C  G
                 D  D4(9)  D  D4  D  D4(9)  D  (4x)
      (Violão 2)
      
      Solo:
      
      E|-8p7-8--8/10-8-----------------8p7-8-8/10--8--10/12
      B|---------------10/12p10-8-8------------------------
      G|---------------------------------------------------
      D|---------------------------------------------------
      A|---------------------------------------------------
      E|---------------------------------------------------
      
      
      E|-8p7-8--8/10-8-----------------10/12-10-10--12/14--
      B|---------------10/12-10-8-8-8----------------------
      G|---------------------------------------------------
      D|---------------------------------------------------
      A|---------------------------------------------------
      E|---------------------------------------------------
      
      
      E|-12-10h12-10---------------------------------------
      B|-------------------5-8-----------------------------
      G|---------------7b9-----7b9r7-5-7-----4-7-----------
      D|---------------------------------7b9-----7b9r7-5---
      A|---------------------------------------------------
      E|---------------------------------------------------
      
      
      E|---------------------------------------------------
      B|-----5-8-------------8-10b12r10p8----8-10-10b12----
      G|-7b9-----7b9r7-5-7/9--------------9----------------
      D|---------------------------------------------------
      A|---------------------------------------------------
      E|---------------------------------------------------
      
      
      E|---------------------------------------------------
      B|--10p8-10p8-8-10b12-8-10p8-8-10-8-10/12-10-10------
      G|---------------------------------------------------
      D|---------------------------------------------------
      A|---------------------------------------------------
      E|---------------------------------------------------
      
      
      E|---------------------------------------------------
      B|-------------------7b8-7----------7b8-7------------
      G|-7/9-7---------------------------------------------
      D|-------9p7-----7--------9p7------------------------
      A|-----------7h8---5----------7h8-5------------------
      E|---------------------------------------------------
      
      
      
      Terceira parte:
      ( D  D/F#  G ) (2x)
      
      D  D/F#         G        D  D/F#  G
              Little patience
                     D        D/F#  G
      Need a little patience
                     D        D/F#  G
      Just a little patience
      
      D                          D/F#
        I've been walking the streets tonight
      G
        Just trying to get it right
      D                           D/F#
        It's hard to see with so many around
            G
      You know, I don't like being stuck in the crowd
                 D                      D/F#
      And the streets don't change but baby the names
      G
        I ain't got time for the game
               D
      Cause I need you
       D/F#       G
      Yeah but I need you
             F
      Oh, I need you
             G
      Oh, I need you
                D       D/F#  G  D
      Oh, this time...
      (Violão 2)
      
      Frases Finais:
      
      E|-/10-----14----------------------------------------
      B|-/10-----15----------------------------------------
      G|-/11-----14----------------------------------------
      D|---------------------------------------------------
      A|---------------------------------------------------
      E|---------------------------------------------------
      
      
      E|-14-14-14\-12--12--10--10--8--8--8-8-8\5-5---------
      B|---------------------------------------------------
      G|-14-14-14\-12--12--11--11--9--9--8-8-8\5-5---------
      D|---------------------------------------------------
      A|---------------------------------------------------
      E|---------------------------------------------------
      
      
      E|-3-3-3-3-3--2--3-3-5-3-------------3-5-3-2---------
      B|-----------------------3-5-3---3-------------------
      G|-4-4-4-4-4--2----------------4---4-----------------
      D|---------------------------------------------------
      A|---------------------------------------------------
      E|---------------------------------------------------
      
      
      E|------------------------5-----------------------10-
      B|---7-8-10-8---8-----6h7---8-6-7-8-----10-8-10/12---
      G|-9----------9--------------------------------------
      D|---------------------------------------------------
      A|---------------------------------------------------
      E|---------------------------------------------------
      
      
        Composição: Axl Rose / Duff McKagan / Izzy Stradlin / Slash / Steven AdlerColaboração e revisão:
        • Caroline
        • Marelo
        • Gáby
        • Léo
        • +19

        Comentários 149

        140 .
        • leonardo leonardo: Em 13/07/2016 12:18

          Conheça nosso Sound City Estúdio, em Perdizes! Rua Apinajés, 1053, salão A. Fone : 11 99323 5151.
          www soundcityestudio com br

        • Fabio Fabio: Em 23/02/2016 08:37

          Ta Show! Mas teste deixar a afinação em D, fica top!

        • Hudson Hudson: Em 08/06/2015 22:21

          Porque tiraram a vidio-aula do player antigo??? Agora não dá mais pra rolar a aula ao lado da cifra... Antes estava melhor de visualizar.. :

        • lucas.andrade.96558061 lucas.andrade.96558061: Em 22/02/2015 13:33

          fodao d+ vei solo brabo pakas

        • walmir walmir: Em 06/02/2015 16:54

          essa música é facil mas tmb poq eu toquei do meu jeito

        • giovane.santos.92351 giovane.santos.92351: Em 25/10/2014 14:54

          essa musica é facil,só é trabalhosa

        • aniie.silvva.3 aniie.silvva.3: Em 24/06/2014 23:11

          pra quem não tá conseguindo fazer bend e release, é só trocar por um hamer on

        • Carlos Carlos: Em 15/06/2014 13:39

          muito legal

        • Daniel Daniel: Em 28/05/2014 14:25

          a vídeo aula do final os cara pipocaro legal, metade das notas de solo ficaram pra traz ):(

          • Nei Nei: Em 07/08/2014 14:11

            Eles fizeram uma adaptação, eles falam no começo.

        140 cancelar
        0:00 / 0:00
        2 versões de baixo exibições contribuição e correção
        1 versão de bateria exibições contribuição e correção
        2 versões de gaita exibições contribuição e correção
        3 versões de Guitar Proformatodownloadscontribuição
        3 versões de partiturasformatodownloadscontribuição
        play/pausefechar subir/descer velocidade
        6ª corda E5ª corda A4ª corda D3ª corda G2ª corda B1ª corda E
          acordes
          publicidade
          fechar
          ok