Cifra Club

Patience

Guns N' Roses

Cifra: Solo (violão e guitarra)
exibições 389.080
Tom: G
Solo:

E|-8p7-8~---8/10-8--------------------------|
B|-----------------10/12p10--8--8-----------|
G|------------------------------------------|
D|------------------------------------------|
A|------------------------------------------|
E|------------------------------------------|

E|-8p7-8~---8/10p8-10/12~-------------------|
B|------------------------------------------|
G|------------------------------------------|
D|------------------------------------------|
A|------------------------------------------|
E|------------------------------------------|

E|-8p7-8~---8/10p8--------------------------|
B|-----------------10/12p10--8--8-----------|
G|------------------------------------------|
D|------------------------------------------|
A|------------------------------------------|
E|------------------------------------------|

E|---10/12--10-10~---12/14--12--10h12-10~---|
B|-8----------------------------------------|
G|------------------------------------------|
D|------------------------------------------|
A|------------------------------------------|
E|------------------------------------------|

E|-----0-3----------------------------------|
B|-3b------br3--0-3-----0-3-----------------|
G|------------------2b------br2--0----------|
D|------------------------------------------|
A|------------------------------------------|
E|------------------------------------------|

E|-----0-3------------3-br5p3---------------|
B|-3b------br3--0-3/5---------5-------------|
G|------------------------------------------|
D|------------------------------------------|
A|------------------------------------------|
E|------------------------------------------|

E|-3-5-5b--br5p--5p3--3--5b--3-5~-----------|
B|------------------------------------------|
G|------------------------------------------|
D|------------------------------------------|
A|------------------------------------------|
E|------------------------------------------|

E|-3-5-3-5/7--5-5~--------------------------|
B|--------------------3/5-3~----------------|
G|-----------------------------4p2-----2----|
D|---------------------------------3h4---0--|
A|------------------------------------------|
E|------------------------------------------|

E|-2/3-2~-----------------2b3--b3r2~--------|
B|------------------------------------------|
G|----------4p2-----------------------------|
D|--------------3h4-0-----------------------|
A|------------------------------------------|
E|------------------------------------------|
Acordes para:
    Composição: Axl Rose / Duff McKagan / Izzy Stradlin / Slash / Steven Adler Colaboração e revisão:
    • Vinícius Dias
    • Wellyton Nandi
    • Caroline Leroy

    0 comentários

    mostrar mais comentários
    00:00 / 00:00
    outros vídeos desta música
    repetir qualidade Automático
    Outros vídeos desta música
    00:00 / 00:00
    Automático
    OK