Cifra Club

You're Crazy

Guns N' Roses

Cifra: Principal
exibições 79.967
Tom: G
Slash (Lead Guitar)
                                                    
D#||-------------------------|---------------------|
A#||-------------------------|------------3--------|
F#||-----2--2-----2-------2--|------------2--------|
C#||-----2--2-----2-------2--|------------0--------|
G#||-----0--0-----0-------0--|---------------------|
D#||--3b-------3b------3-----|----3--3b------------|


                                                 
-------------------------|---------------0------|
-------------------------|---------------0------|
-----2--2-----2-------2--|----2----------1------|
-----2--2-----2-------2--|----2-----------------|
-----0--0-----0-------0--|----0-----------------|
--3b-------3b------3-----|-------3b---0---------|


                                                                          
-------------------------|---------------------|-------------------------|
-------------------------|------------3--------|-------------------------|
-----2--2-----2-------2--|------------2--------|-----2--2-----2-------2--|
-----2--2-----2-------2--|------------0--------|-----2--2-----2-------2--|
-----0--0-----0-------0--|---------------------|-----0--0-----0-------0--|
--3b-------3b------3-----|----3--3b------------|--3b-------3b------3-----|


                                                                          
---------------0------|--------------------------|-----------------------|
---------------0------|--------------------------|-----------------------|
----2----------1------|-----2--2-----2--2-----2--|--x-----2----2r-----0--|
----2-----------------|-----2--2-----2--2-----2--|--x-----2--------------|
----0-----------------|-----0--0-----0--0-----0--|--x-----0--------------|
-------3b---0---------|--3--------3--------3-----|-----3-----------------|


                                                 
-------------------------|---------------0------|
-------------------------|---------------0------|
-----2--2-----2-------2--|----2----------1------|
-----2--2-----2-------2--|----2-----------------|
-----0--0-----0-------0--|----0-----------------|
--3--------3-------3-----|-------3b---0---------|


                                                   
--------------------------|-----------------------|
--------------------------|-----------------------|
-----2--2-----2--2-----2--|--x-----2----2r-----0--|
-----2--2-----2--2-----2--|--x-----2--------------|
-----0--0-----0--0-----0--|--x-----0--------------|
--3--------3--------3-----|-----3-----------------|


                                                 
-------------------------|---------------0------|
-------------------------|---------------0------|
-----2--2-----2-------2--|----2----------1------|
-----2--2-----2-------2--|----2-----------------|
-----0--0-----0-------0--|----0-----------------|
--3--------3-------3-----|-------3b---0---------|


                                                   
--------------------------|-----------------------|
--------------------------|-----------------------|
-----2--2-----2--2-----2--|--x-----2----2r-----0--|
-----2--2-----2--2-----2--|--x-----2--------------|
-----0--0-----0--0-----0--|--x-----0--------------|
--3--------3--------3-----|-----3-----------------|


                                                 
-------------------------|---------------0------|
-------------------------|---------------0------|
-----2--2-----2-------2--|----2----------1------|
-----2--2-----2-------2--|----2-----------------|
-----0--0-----0-------0--|----0-----------------|
--3--------3-------3-----|-------3b---0---------|


                                                   
--------------------------|-----------------------|
--------------------------|-----------------------|
-----2--2-----2--2-----2--|--x-----2----2r-----0--|
-----2--2-----2--2-----2--|--x-----2--------------|
-----0--0-----0--0-----0--|--x-----0--------------|
--3--------3--------3-----|-----3-----------------|


                                                                       
-------------------------|---------------0------|--2------------2--2--|
-------------------------|---------------0------|--3------------3--3--|
-----2--2-----2-------2--|----2----------1------|--2------------2--2--|
-----2--2-----2-------2--|----2-----------------|--0------------0--0--|
-----0--0-----0-------0--|----0-----------------|---------------------|
--3--------3-------3-----|-------3b---0---------|---------------------|


                                                             
------------------|--2------------2--2--|-------------------|
------------------|--3------------3--3--|-------------------|
------------------|--2------------2--2--|-------------------|
------------------|--0------------0--0--|-------------------|
------------------|---------------------|------------3------|
------------------|---------------------|-------------------|


                                                   
--------------------------|-----------------------|
--------------------------|-----------------------|
-----2--2-----2--2-----2--|--x-----2----2r-----0--|
-----2--2-----2--2-----2--|--x-----2--------------|
-----0--0-----0--0-----0--|--x-----0--------------|
--3--------3--------3-----|-----3-----------------|


                                                                       
-------------------------|---------------0------|--2------------2--2--|
-------------------------|---------------0------|--3------------3--3--|
-----2--2-----2-------2--|----2----------1------|--2------------2--2--|
-----2--2-----2-------2--|----2-----------------|--0------------0--0--|
-----0--0-----0-------0--|----0-----------------|---------------------|
--3--------3-------3-----|-------3b---0---------|---------------------|


                                                            
------------------|--2------------2--2--|------------------|
------------------|--3------------3--3--|------------------|
------------------|--2------------2--2--|------------------|
------------------|--0------------0--0--|------------------|
------------------|---------------------|------------------|
------------------|---------------------|------------------|


                                                           
-------------------|-------------------|------------------|
-------------------|-------------------|------------------|
--9----------------|--------------7----|------------------|
--9----------------|--------------7----|------------------|
--7----------------|--------------5----|------------------|
-------------------|-------------------|------------------|


                                                                        
--------------------|--------------------------|-----------------------|
--------------------|--------------------------|-----------------------|
--5-----------------|-----2--2-----2--2-----2--|--x-----2----2r-----0--|
--5--------5--------|-----2--2-----2--2-----2--|--x-----2--------------|
--3--------5--------|-----0--0-----0--0-----0--|--x-----0--------------|
-----------3--------|--3--------3--------3-----|-----3-----------------|


                                                 
-------------------------|---------------0------|
-------------------------|---------------0------|
-----2--2-----2-------2--|----2----------1------|
-----2--2-----2-------2--|----2-----------------|
-----0--0-----0-------0--|----0-----------------|
--3--------3-------3-----|-------3b---0---------|


                                                   
--------------------------|-----------------------|
--------------------------|-----------------------|
-----2--2-----2--2-----2--|--x-----2----2r-----0--|
-----2--2-----2--2-----2--|--x-----2--------------|
-----0--0-----0--0-----0--|--x-----0--------------|
--3--------3--------3-----|-----3-----------------|


                                                          
--------------------------------|-----------------0------|
-----1h3h1----------------------|-----------------0------|
--3b-------2-0h2----0-----------|-----------------1------|
------------------2---2-0-----0-|------------------------|
--------------------------2-1---|--1--0------------------|
--------------------------------|-------3-3b---0---------|


                                                 
--------------------------|---------------------|
--------------------------|------3----3h-1------|
-----2--2-----2--2-----2--|------2--------------|
-----2--2-----2--2-----2--|------0--------------|
--------------------------|---------------------|
--3--------3--------3-----|---------------------|


                                                  
--------------------------|---------------0------|
--------------------------|---------------0------|
-----2--2-----2--2-----2--|----2----------1------|
-----2--2-----2--2-----2--|----------------------|
--------------------------|----------------------|
--3--------3--------3-----|-------3b---0---------|


                                                 
--------------------------|---------------------|
--------------------------|------3----3h-1------|
-----2--2-----2--2-----2--|------2--------------|
-----2--2-----2--2-----2--|------0--------------|
--------------------------|---------------------|
--3--------3--------3-----|---------------------|


                                                                        
--------------------------|---------------0------|--2------------2--2--|
--------------------------|---------------0------|--3------------3--3--|
-----2--2-----2--2-----2--|----2----------1------|--2------------2--2--|
-----2--2-----2--2-----2--|----------------------|--0------------0--0--|
--------------------------|----------------------|---------------------|
--3--------3--------3-----|-------3b---0---------|---------------------|


                                                             
------------------|--2------------2--2--|-------------------|
------------------|--3------------3--3--|-------------------|
------------------|--2------------2--2--|-------------------|
------------------|--0------------0--0--|-------------------|
------------------|---------------------|------------3------|
------------------|---------------------|-------------------|


                                                   
--------------------------|-----------------------|
--------------------------|-----------------------|
-----2--2-----2--2-----2--|--x-----2----2r-----0--|
-----2--2-----2--2-----2--|--x-----2--------------|
-----0--0-----0--0-----0--|--x-----0--------------|
--3--------3--------3-----|-----3-----------------|


                                                                       
-------------------------|---------------0------|--2------------2--2--|
-------------------------|---------------0------|--3------------3--3--|
-----2--2-----2-------2--|----2----------1------|--2------------2--2--|
-----2--2-----2-------2--|----2-----------------|--0------------0--0--|
-----0--0-----0-------0--|----0-----------------|---------------------|
--3--------3-------3-----|-------3b---0---------|---------------------|


                                                              
------------------|--2------------2--2--|----------2----2----|
------------------|--3------------3--3--|----------3----3----|
------------------|--2------------2--2--|----------2----2----|
------------------|--0------------0--0--|----------0----0----|
------------------|---------------------|--------------------|
------------------|---------------------|--------------------|


                                                                    
---------------------|----------------------|----------------------|
---------------------|----------------------|----------------------|
--9------------------|----------------------|----------------------|
--9--------12--------|--9----8----x----7----|----------------------|
--7--------10--------|--7----6----x----5----|----------------------|
---------------------|----------------------|------0----2----3--4--|


                                                                    
---------------------|----------------------|----------------------|
---------------------|----------------------|----------------------|
---------------------|----------------------|----------------------|
---------------------|----------------x--x--|--x----9----8----7----|
------0----3--0------|--3--------0----------|--x----7----6----5----|
---------------------|----------------x--x--|--x-------------------|


                                                                    
----------------------|---------------------|----------------------|
----------------------|---------------------|----------------------|
----------------------|---------------------|----------------------|
----------------------|---------------------|----------------x--x--|
----------------------|------0----3--0------|--3--------0----------|
------0----2----3--4--|---------------------|----------------x--x--|


                                                                    
----------------------|----------------------|---------------------|
----------------------|----------------------|---------------------|
----------------------|----------------------|---------------------|
--x----9----8----7----|----------------------|---------------------|
--x----7----6----5----|----------------------|------0----3--0------|
--x-------------------|------0----2----3--4--|---------------------|


                                                                     
----------------------|----------------------|----------------------|
----------------------|----------------------|----------------------|
----------------------|----------------------|----------------------|
----------------x--x--|--x----9----8----7----|----------------------|
--3--------0----------|--x----7----6----5----|----------------------|
----------------x--x--|--x-------------------|------0----2----3--4--|


                                                                    
---------------------|----------------------|-----------------2----|
---------------------|----------------------|-----------------3----|
---------------------|----------------------|-------4----3----2----|
---------------------|----------------x--x--|--x----2----1----0----|
------0----3--0------|--3--------0----------|--x-------------------|
---------------------|----------------x--x--|--x-------------------|


                                                         
------------------|------------------|------------------|
------------------|------------------|------------------|
------------------|------------------|------------------|
------------------|------------------|------------------|
------------------|------------------|------------------|
------------------|------------------|------------------|


                                                              
---------------------|-------0------------|------------------|
---------------------|-------0------------|------------------|
---------------------|-------1------------|------------------|
-----------5----4----|--2-----------------|------------------|
------2----5----4----|--2-----------------|------------------|
------0----3----2----|--0-----------------|------------------|


                                                               
------------------|--------------------|----------------------|
------------------|--------------------|----------------------|
------------------|----------5----4----|--2--------2-------2--|
------------------|----------5----4----|--2--------2-------2--|
------------------|----------3----2----|--0--------0-------0--|
------------------|--------------------|----------------3-----|


                                                           
------------------|------------------|--------------------|
------------------|------------------|--------------------|
------------------|------------------|--------------------|
------------------|------------------|--------------------|
------------------|------------------|----------5----4----|
------------------|------------------|----------3----2----|


                                                           
-------0------------|------------------|------------------|
-------0------------|------------------|------------------|
-------1------------|------------------|------------------|
--2-----------------|------------------|------------------|
--2-----------------|------------------|------------------|
--0-----------------|------------------|------------------|


                                                               
--------------------|----------------------|------------------|
--------------------|----------------------|------------------|
----------5----4----|--2--------2-------2--|------------------|
----------5----4----|--2--------2-------2--|------------------|
----------3----2----|--0--------0-------0--|------------------|
--------------------|----------------3-----|------------------|


                                                                  
-------------------|------------------------|-------0------------|
--------------8----|------------------------|-------0------------|
--------------7b---|------5-----------------|-------1------------|
-------------------|---------7--5-----------|-------2------------|
-------------------|---------------5--------|-------2------------|
-------------------|------------------7--5--|--0-----------------|


                                                           
------------------|------------------|--------------------|
------------------|------------------|--------------------|
------------------|------------------|----------5----4----|
------------------|------------------|----------5----4----|
------------------|------------------|----------3----2----|
------------------|------------------|--------------------|


                                                            
---------------------|------------------|------------------|
---------------------|------------------|------------------|
--2--------2------2--|------------------|------------------|
--2--------2------2--|------------------|------------------|
--0--------0------0--|------------------|------------------|
---------------------|------------------|------------------|


                                                                 
------------------|-----------------------|---------------------|
------------------|-----------------------|---------------------|
------------------|-----------------------|---------------------|
------------------|-------2-------2-------|----------------2----|
------------------|-----------------------|---------------------|
------------------|--3b------3b------3b---|--0--------3b--------|


                                                                          
----------3--3-----3--3--|-----3--3--3-------------|----------7----------|
----------3--3-----3--3--|-----3--3--3-------------|---------------10b---|
--3b---3b-------3b-------|--3b----------3r-0----9b-|---------------------|
-------------------------|-------------------------|---------------------|
-------------------------|-------------------------|---------------------|
-------------------------|-------------------------|---------------------|


                                                  
---------------------|------10-----------10------|
---------------10----|----------10-----------10--|
--9b-----------9b----|--------------9b-----------|
---------------------|---------------------------|
---------------------|---------------------------|
---------------------|---------------------------|


                                                           
-------------------------|--------------------------------|
-------------------------|--10b-------10--9--10--7-10h9h7-|
--9r---7-----9--7--------|--------------------------------|
----------9--------9--7--|--------------------------------|
-------------------------|--------------------------------|
-------------------------|--------------------------------|


                                                                      
-----------------------------------|---------------------------------|
----7---------7--------------------|---------------------------------|
--9---9b-10-9---10h9h7---9h7-------|---------------------------------|
-----------------------9-----9-7---|-----7---------------------------|
---------------------------------9-|--8-----9--8--7--5-----5---------|
-----------------------------------|--------------------7-----7b-----|


                                                    
------------------17--|--------17----------17------|
------------17b-------|--17b---------17b-------17b-|
----------------------|----------------------------|
----------------------|----------------------------|
----------------------|----------------------------|
----------------------|----------------------------|


                                                    
--------17--------------|--------17----------17----|
--17b---------17b-------|--17b---------17b---------|
------------------------|--------------------------|
------------------------|--------------------------|
------------------------|--------------------------|
------------------------|--------------------------|


                                                      
--------17----------17------|--------17--------------|
--17b---------17b-------17b-|--17b---------17b-------|
----------------------------|------------------------|
----------------------------|------------------------|
----------------------------|------------------------|
----------------------------|------------------------|


                                                                  
--------17--17--------------|--17b-------17--16--17--16-14h17h14-|
--17b-----------17r---15----|------------------------------------|
----------------------------|------------------------------------|
----------------------------|------------------------------------|
----------------------------|------------------------------------|
----------------------------|------------------------------------|


                                                                     
-----14-----14-------------------------------|----------------------|
--17----17b----17-15-14h15h14----------------|--------17------------|
------------------------------16-14/16----14-|--16b-----------------|
---------------------------------------16----|----------------------|
---------------------------------------------|----------------------|
---------------------------------------------|----------------------|


                                                                     
------------------|--------------------------|---------------0------|
------------------|--------------------------|---------------0------|
------------------|-----2--2-----2--2-----2--|----2----------1------|
------------------|-----2--2-----2--2-----2--|----------------------|
------------------|--------------------------|----------------------|
------------------|--3--------3--------3-----|-------3b---0---------|


                                                 
--------------------------|---------------------|
--------------------------|------3----3h-1------|
-----2--2-----2--2-----2--|------2--------------|
-----2--2-----2--2-----2--|------0--------------|
--------------------------|---------------------|
--3--------3--------3-----|---------------------|


                                                                        
--------------------------|---------------0------|--2------------2--2--|
--------------------------|---------------0------|--3------------3--3--|
-----2--2-----2--2-----2--|----2----------1------|--2------------2--2--|
-----2--2-----2--2-----2--|----------------------|--0------------0--0--|
--------------------------|----------------------|---------------------|
--3--------3--------3-----|-------3b---0---------|---------------------|


                                                             
------------------|--2------------2--2--|-------------------|
------------------|--3------------3--3--|-------------------|
------------------|--2------------2--2--|-------------------|
------------------|--0------------0--0--|-------------------|
------------------|---------------------|------------3------|
------------------|---------------------|-------------------|


                                                   
--------------------------|-----------------------|
--------------------------|-----------------------|
-----2--2-----2--2-----2--|--x-----2----2r-----0--|
-----2--2-----2--2-----2--|--x-----2--------------|
-----0--0-----0--0-----0--|--x-----0--------------|
--3--------3--------3-----|-----3-----------------|


                                                                       
-------------------------|---------------0------|--2------------2--2--|
-------------------------|---------------0------|--3------------3--3--|
-----2--2-----2-------2--|----2----------1------|--2------------2--2--|
-----2--2-----2-------2--|----2-----------------|--0------------0--0--|
-----0--0-----0-------0--|----0-----------------|---------------------|
--3--------3-------3-----|-------3b---0---------|---------------------|


                                                              
------------------|--2------------2--2--|----------2----2----|
------------------|--3------------3--3--|----------3----3----|
------------------|--2------------2--2--|----------2----2----|
------------------|--0------------0--0--|----------0----0----|
------------------|---------------------|--------------------|
------------------|---------------------|--------------------|


                                                                    
---------------------|----------------------|----------------------|
---------------------|----------------------|----------------------|
--9------------------|----------------------|----------------------|
--9--------12--------|--9----8----x----7----|----------------------|
--7--------10--------|--7----6----x----5----|----------------------|
---------------------|----------------------|------0----2----3--4--|


                                                                    
---------------------|----------------------|----------------------|
---------------------|----------------------|----------------------|
---------------------|----------------------|----------------------|
---------------------|----------------x--x--|--x----9----8----7----|
------0----3--0------|--3--------0----------|--x----7----6----5----|
---------------------|----------------x--x--|--x-------------------|


                                                                    
----------------------|---------------------|----------------------|
----------------------|---------------------|----------------------|
----------------------|---------------------|----------------------|
----------------------|---------------------|----------------x--x--|
----------------------|------0----3--0------|--3--------0----------|
------0----2----3--4--|---------------------|----------------x--x--|


                                                                    
----------------------|----------------------|---------------------|
----------------------|----------------------|---------------------|
----------------------|----------------------|---------------------|
--x----9----8----7----|----------------------|---------------------|
--x----7----6----5----|----------------------|------0----3--0------|
--x-------------------|------0----2----3--4--|---------------------|


                                                                   
----------------------|----------------------|--------------------|
----------------------|----------------------|------5~-------5----|
----------------------|----------------------|------4~-------4----|
----------------x--x--|--x----9----8----7----|--------------------|
--3--------0----------|--x----7----6----5----|--------------------|
----------------x--x--|--x-------------------|--------------------|


                                                                    
---------------------|----------------------|----------------------|
---------------------|----------------------|----------------------|
---------------------|----------------------|----------------------|
---------------------|----------------x--x--|--x----9----8----7----|
------0----3--0------|--3--------0----------|--x----7----6----5----|
---------------------|----------------x--x--|--x-------------------|


                                                                     
----------------------|----------------------|----------------------|
------17~-------17----|------17~-------17----|------17~-------17----|
------16~-------16----|------16~-------16----|------16~-------16----|
----------------------|----------------------|----------------------|
----------------------|----------------------|----------------------|
----------------------|----------------------|----------------------|


                                                                     
----------------------|----------------------|----------------------|
------17~-------17----|------17~-------17----|------17~-------17----|
------16~-------16----|------16~-------16----|------16~-------16----|
----------------------|----------------------|----------------------|
----------------------|----------------------|----------------------|
----------------------|----------------------|----------------------|


                                                                     
----------------------|----------------------|----------------------|
------17~-------17----|------17~-------17----|------17~-------17----|
------16~-------16----|------16~-------16----|------16~-------16----|
----------------------|----------------------|----------------------|
----------------------|----------------------|----------------------|
----------------------|----------------------|----------------------|


                                                  
----------------------|--------------------------|
------17b-------17b---|------17b---------17--16--|
----------------------|--------------------------|
----------------------|--------------------------|
----------------------|--------------------------|
----------------------|--------------------------|


                                                                        
------------------------------------------------|--17------------------|
--17--16h17h16--15--16--15h16h15------15--------|----------------------|
----------------------------------17------17b---|--------17b-----------|
------------------------------------------------|----------------------|
------------------------------------------------|----------------------|
------------------------------------------------|----------------------|


                                                                         
--17------------------|--17------------------|--17----------------------|
----------------------|----------------------|--------------------17b---|
--------17b-----------|--------17b-----------|--------17r-----14--------|
----------------------|----------------------|--------------------------|
----------------------|----------------------|--------------------------|
----------------------|----------------------|--------------------------|


                                                             
------------------|----------------------|------------------|
------------------|----------------------|------------------|
------------------|------------7----7----|------------------|
------------------|------------7----7----|------------------|
------------------|------------5----5----|------------------|
------------------|------12/-------------|------------------|


                                                                
--------------------|------------------|-----------------------|
--------------------|------------------|-----------------------|
----------7----7----|------------------|-----------------------|
----------7----7----|------------------|-----------------------|
----------5----5----|------------------|------0----0--0--0--3b-|
--------------------|------------------|-----------------------|


                     
--------5----------||
--------5----------||
--------2----------||
--------2----------||
--------0----------||
-------------------||
Acordes para:
    Composição: Guns N' Roses

    0 comentários

      mostrar mais comentários

      Conseguiu tocar?

      5tocaram1ainda não

      Grave um vídeo tocando You're Crazy e mande pra gente!

      00:00 / 00:00
      outros vídeos desta música
      repetirqualidadeautomática
      Outro vídeos desta música
        00:00 / 00:00
        automática
        OK