Cifra Club

Aprenda

Infinity 2008

Guru Josh Project

Cifra: Principal (violão e guitarra)
Tom: A#
E|-8/10/11~~~~-8/10~~~~-8/10~~~~-6/8~~~~-|
B|---------------------------------------|
G|---------------------------------------|
D|---------------------------------------|
A|---------------------------------------|
E|---------------------------------------|

   Cm    Gm    Bb    F G
E|-3-----3-----2-----1/3|
B|-4-----3-----4-----1/3|
G|-5-----3-----4-----2/4|
D|-5-----5-----4-----3/5|
A|-3-----5-----2-----3/5|
E|-------3-----------1/3|

G|---------------------------------------|
D|---------------------------------------|
A|-xxxxxxxx6~~~~-3/5~~~~-3/5~~~~-1/3~~~~-|
E|---------------------------------------|
Composição de Paul Walden
Colaboração e revisão:
  • lucas
  • Jorge Umemaru
10.328 exibições
    • ½ Tom
    • A
    • Bb
    • B
    • C
    • Db
    • D
    • Eb
    • E
    • F
    • F#
    • G
    • Ab
  • Adicionar à lista

    0 comentários

    Mostrar mais comentários

    Conseguiu tocar?

    2 Tocaram 1 Ainda não

    Grave um vídeo tocando Infinity 2008 e mande pra gente!

    00:00 / 00:00
    outros vídeos desta música
    repetir qualidade Automático
    Outros vídeos desta música
    00:00 / 00:00
    Automático

    Cifra Club Pro

    Aproveite o Cifra Club com benefícios exclusivos e sem anúncios
    Cifra Club Pro
    Aproveite o Cifra Club com benefícios exclusivos e sem anúncios
    OK