Cifra Club

Sudestada

Gustavo Cerati

Cifra: Principal (violão e guitarra)
Selo Cifra Club: esta cifra foi revisada para atender aos critérios oficiais da nossa Equipe de Qualidade.
tom: Am
INTRO: G (toda la intro)

E|---5-------1-----5--------1------5--------1--|
B|-3----3--5----------3--5-------3----3--5-----|
G|---------------------------------------------|
D|---------------------------------------------|
A|---------------------------------------------|
E|---------------------------------------------|


Riff 1 (0:20)

E|-------------------|
B|---0h-1-p0---------|
G|-------------------|
D|-------------------|
A|-------------------|
E|-------------------|

Riff 2  (3:17)

E|---12h13---12h13---12h13-/-15---------------------------------------------|
B|---------------------------------13h15p13---------------------------------|
G|--------------------------------------------14h16p14----------------------|
D|-------------------------------------------------------12h14--/--12-------|
A|--------------------------------------------------------------------------|
E|--------------------------------------------------------------------------|

Riff 3  (3:28)

E|---(17)/(15)---(17)/(15)---(17)/(15)------|
B|------------------------------------------|
G|------------------------------------------|
D|------------------------------------------|
A|------------------------------------------|
E|------------------------------------------|

VERSO 1:
  Am7    C7
A ver, A ver
      G
Si aclara
  Am7     C7
Hable de vos
        G
De mis ansias
Am7               C7         G
   Del día que nació, en tu boca
Am7               C7          G
   Del nuevo temporal, que estalla

CORO (x2):
F - Am (F es el primer acorde que suena, se pasa rápidamente al otro)
F - C
G

VERSO 2:
 Am7    C7
Afuera mis
    G
Entrañas
 Am7     C7
Adentro sigue
     G
En calma
Am7                 C7
   Trataba de explicar,
G                        Em
   Que ya no hay vuelta atrás

 Am7     C7       G
Hablé, hablé, de todo

CORO (x2)

INSTRUMENTAL:
Am7 - G (x4)
Outros vídeos desta música
    7.841 exibições
      • ½ Tom
      • Am
      • Bbm
      • Bm
      • Cm
      • C#m
      • Dm
      • Ebm
      • Em
      • Fm
      • F#m
      • Gm
      • G#m
    • Adicionar à lista

    Afinação da cifra

    Afinador online

      0 comentários

      Ver todos os comentários

      Entre para o Cifra Club PRO

      Tenha acesso a benefícios exclusivos no App e no Site

      • Chega de anúncios

      • Badges exclusivas

      • Mais recursos no app do Afinador

      • Atendimento Prioritário

      • Aumente seu limite de lista

      • Ajude a produzir mais conteúdo

      Cifra Club Pro

      Aproveite o Cifra Club com benefícios exclusivos e sem anúncios
      Cifra Club Pro
      Aproveite o Cifra Club com benefícios exclusivos e sem anúncios
      Ops (: Contenido disponible sólo en portugués.
      OK