Cifra Club

Pro Nosso Bem

Gustavo Mioto

Cifra: Principal (violão e guitarra)
Tom: D
[Intro] D  E  C#m7  F#m

   D                     E               
E|----------------------------------------------------|
B|-7---x--7---x--7-------7/9---x--9---x---9/5---------|
G|---x-x------x--------------x-x------x---------------|
D|-----x----7-x----7-----------x----9-x---------------|
A|-5------5--------------5/7------7-----7-------------|
E|----------------------------------------------------|

   C#m7               F#m
E|----------------------------------------------------|
B|-5----x--5----------12-10---------------------------|
G|----x-x--------6/11-11-10---------------------------|
D|------x---------------------------------------------|
A|-4----x--4------------------9~----------------------|
E|----------------------------------------------------|

[Primeira Parte]

                   D
Tira uma dúvida aqui
   E                         F#m
O tempo que passou longe de mim 
        A                          
Fez bem   ou não te fez tão bem assim
          E                      F#m
O que eu sei é que tá bad por aqui

( A )
 
E|----------------------------------------------------|
B|--0h2p0---------------------------------------------|
G|--------2--2----------------------------------------|
D|-----------2----------------------------------------|
A|-----------0----------------------------------------|
E|----------------------------------------------------|

[Pré-Refrão] 

                      D
Será que já se acostumou 
                            E
A dormir com os dois travesseiros
                           F#m
Não disputar espaço no chuveiro 
                     A                      D
E acordar sem o meu beijo chato de despertador 
                      E
Será que já se acostumou

[Refrão]

                       D
Como é que tá seu coração 
                E
Sozinho sem mim 
                     C#m7
E se tiver igual ao meu 
           F#m
Que dó, tadinho
                        D
Pro nosso bem escuta a dica 
          E                        F#m7
Pega sua vida e traz de volta pra minha

E traz de volta

 A                     D
Como é que tá seu coração 
                E
Sozinho sem mim 
                     C#m7
E se tiver igual ao meu 
           F#m
Que dó, tadinho
                        D
Pro nosso bem escuta a dica 
          E                        F#m7
Pega sua vida e traz de volta pra minha

E traz de volta

( D  E  C#m7  F#m )

[Pré-Refrão] 

                      D
Será que já se acostumou 
                            E
A dormir com os dois travesseiros
                           F#m7
Não disputar espaço no chuveiro 
                     A                      D
E acordar sem o meu beijo chato de despertador 
                      E
Será que já se acostumou

[Refrão]

                       D
Como é que tá seu coração 
                E
Sozinho sem mim 
                     C#m7
E se tiver igual ao meu 
           F#m
Que dó, tadinho
                        D
Pro nosso bem escuta a dica 
          E                        F#m7
Pega sua vida e traz de volta pra minha

E traz de volta

 A                     D
Como é que tá seu coração 
                E
Sozinho sem mim 
                     C#m7
E se tiver igual ao meu 
           F#m
Que dó, tadinho
                        D
Pro nosso bem escuta a dica 
          E                        F#m7
Pega sua vida e traz de volta pra minha

E traz de volta

( D  E  C#m7  F#m )
exibições 21.891
Acordes para:
    Composição: Bruno Sucesso / Daniel Caon / Elan Rúbio / Vinicius Poeta Colaboração e revisão:
    • Getúlio Vasconcelos

    0 comentários

    mostrar mais comentários

    Conseguiu tocar?

    4 tocaram 0 ainda não

    Grave um vídeo tocando Pro Nosso Bem e mande pra gente!

    00:00 / 00:00
    outros vídeos desta música
    repetir qualidade Automático
    Outros vídeos desta música
    00:00 / 00:00
    Automático
    OK