Cifra Club

Bloqueado

Gusttavo Lima

Cifra: Principal (violão e guitarra)
tom: C#m (forma dos acordes no tom de Bm) Capotraste na 2ª casa
[Intro] Bm  A2 

[Tab - Solo Intro]

Parte 1 de 3
     Bm 
E|------------------------------------------|
B|----5/7-7-7---7-7-7--8-7h8p7--5/3---------|
G|--4---------------------------6/4---------|
D|------------------------------------------|
A|------------------------------------------|
E|------------------------------------------|

Parte 2 de 3
    A2
E|------------------------------------------|
B|--2-3-2-3-2h3p2--2-3-2-3-3/5--------------|
G|------------------------------------------|
D|------------------------------------------|
A|------------------------------------------|
E|------------------------------------------|

Parte 3 de 3

E|------------------------------------------|
B|--7--5h7p5--------------------------------|
G|-----------7-6-6/4------------------------|
D|------------------------------------------|
A|------------------------------------------|
E|------------------------------------------|

[Primeira Parte]

   Bm
Tô aqui bebendo em 

Um botequinho de esquina
                              
Cerveja e pinga depois de um
 G
Dia inteiro de trabalho

Já é fim de tarde
 D
Me bateu uma saudade
 F#m
Me bateu uma saudade

[Segunda Parte]

    Bm
Eu sei que eu não posso ligar

Pra quem já me esqueceu
                                G
Coração prometeu nunca mais recair

Só que agora bebeu, tá sem dignidade
 D
Me bateu uma saudade
    F#m
Daquelas que o coração arde

[Pré-Refrão]

G
9912-5003
A2
Olha eu recaindo outra vez

[Refrão]

     Bm              A2
Lembrei que tô bloqueado
                                 Em
É muita raiva misturada com tristeza
                          D/F#       G   A2
Olha eu chorando e dando porrada na mesa

     Bm              A2
Lembrei que tô bloqueado
                                 Em
É muita raiva misturada com tristeza
                          D/F#       G   
Olha eu chorando e dando porrada na mesa
    A2               Bm
Derrama, derrama cerveja

[Solo] Bm  A2
       Bm  A2  G  Em

Parte 1 de 5
      Bm                      A2
E|------------------------------------------|
B|----5/7--7-7-7-8-7h8p7-5/2--2-3-2-3-2h3p2-|
G|--4---------------------------------------|
D|------------------------------------------|
A|------------------------------------------|
E|------------------------------------------|

Parte 2 de 5

E|------------------------------------------|
B|--2-3-2h3p2-------------------------------|
G|------------------------------------------|
D|------------------------------------------|
A|------------------------------------------|
E|------------------------------------------|

Parte 3 de 5
  Bm  
E|----------------10--12-14-12h14p12--------|
B|-------------12---------------------------|
G|----------11------------------------------|
D|--9-11-12---------------------------------|
A|------------------------------------------|
E|------------------------------------------|

Parte 4 de 5
  A2 
E|--------------9-10-12-10h12p10------------|
B|-----------10-----------------------------|
G|---------9--------------------------------|
D|--7-9-11----------------------------------|
A|------------------------------------------|
E|------------------------------------------|

Parte 5 de 5
    G                    Em
E|------------------------------------------|
B|-------------7h8-7h8p7--------------------|
G|------------------------------------------|
D|--5/7-7/9-9-------------------------------|
A|------------------------------------------|
E|------------------------------------------|

[Segunda Parte]

    Bm
Eu sei que eu não posso ligar

Pra quem já me esqueceu
                                G
Coração prometeu nunca mais recair

Só que agora bebeu, tá sem dignidade
 D
Me bateu uma saudade
    F#m
Daquelas que o coração arde

[Pré-Refrão]

G
9912-5003
A2
Olha eu recaindo outra vez

[Refrão Final]

     Bm              A2
Lembrei que tô bloqueado
                                 Em
É muita raiva misturada com tristeza
                          D/F#       G   A2
Olha eu chorando e dando porrada na mesa

     Bm              A2
Lembrei que tô bloqueado
                                 Em
É muita raiva misturada com tristeza
                          D/F#       G   A2
Olha eu chorando e dando porrada na mesa

     Bm              A2
Lembrei que tô bloqueado
                                 Em
É muita raiva misturada com tristeza
                          D/F#       G   
Olha eu chorando e dando porrada na mesa
    A2               Bm
Derrama, derrama cerveja
00:00 / 00:00
Outros vídeos desta música
Repetir
Outros vídeos desta música
Composição de Renno / Kinho Chefão / Rodrigo Reis
Colaboração e revisão:
  • Gustavo Zanandrez
  • Raffael Uascar
  • Lucas hahn
65.117 exibições
    • ½ Tom
    • Am
    • Bbm
    • Bm
    • Cm
    • C#m
    • Dm
    • Ebm
    • Em
    • Fm
    • F#m
    • Gm
    • G#m
  • Adicionar à lista

    0 comentários

    Ver todos os comentários

    Conseguiu tocar?

    4 Tocaram 0 Ainda não

    Grave um vídeo tocando Bloqueado e nos envie!

    Entre para oCifra Club PRO

    Tenha acesso a benefícios exclusivos no App e no Site

    • Chega de anúncios

    • Prioridade de compra em lançamentos

    • Mais recursos no app do Afinador

    • Atendimento Prioritário

    • Descontos nos produtos Cifra Club

    • Ajude a produzir mais conteúdo

    00:00 / 00:00

    Cifra Club Pro

    Aproveite o Cifra Club com benefícios exclusivos e sem anúncios
    Cifra Club Pro
    Aproveite o Cifra Club com benefícios exclusivos e sem anúncios
    OK